Song name
# A B C D E F G H I J K L M N O P Q R S T U V W X Y Z

Rose Hill Drive - Declaration Of Independence tab

Highlighted       Show chord diagrams
This is my first tab, but it sounds like this is pretty much the song...

B / A / F#m / A / Am / E

Follow that last chord with:

e|------------------|
B|------------------|
G|------------------|
D|------------------|
A|------------0-1---|
E|--0-1-2---4-------|

Pretty simple song...just repeat that over throughout


    B   A  F#m  Am  E
e|--x---0---2---0---0-|
B|--4---2---2---1---0-|
G|--4---2---2---2---1-|
D|--4---2---4---2---2-|
A|--2---0---4---0---2-|
E|--x---x---2---x---0-|
Tap to rate this tab
# A B C D E F G H I J K L M N O P Q R S T U V W X Y Z