Song name
# A B C D E F G H I J K L M N O P Q R S T U V W X Y Z

Rose Hill Drive - Sneak Out tab

e|----------------------------------------------------------------------|
b|----------------------------------------------------------------------|
g|-----------------------------------------10b12r10p8--10--8--10b12-----|
D|--8h10p810--10p8h10p8h10--10p8h10p8h10--------------------------------|
A|--8h10p810--10p8h10p8h10--10p8h10p8h10--------------------------------|
E|--8h10p810--10p8h10p8h10--10p8h10p8h10--------------------------------|

repeat these both, twice for intro; which kinda also makes up most of the song

e|-----------------------------------------------------------------------|
b|-----------------------------------------------------------------------|
g|------------------------------------------10b12r10p8--10--8------------|
D|--8h10p810--10p8h10p8h10--10p8h10p8h10----------------------10---------|
A|--8h10p810--10p8h10p8h10--10p8h10p8h10---------------------------------|
E|--8h10p810--10p8h10p8h10--10p8h10p8h10---------------------------------|
Tap to rate this tab
# A B C D E F G H I J K L M N O P Q R S T U V W X Y Z