Song name
# A B C D E F G H I J K L M N O P Q R S T U V W X Y Z

Rose Hill Drive - Sneak Out tab

-------------------------------------------------------------------------------

			     Rose Hill Drive-Sneak Out
-------------------------------------------------------------------------------
Tabbed by:dwarfcar21
Email:wally_kai_harper@yahoo.com

Tuning:standard

Most song is based on the 1st riff.(listen for timing if needed) Then the bass plays 
parts. Some parts that you might think is guitar is actually the bass. This is ear 
so watch the criticism. Enjoy! :)

Intro:Distortion

Riff:also the intro

e|-----------------------------------------------------|
B|-----------------------------------------------------|
G|----------------then-5h8p5/3-5-----------------------|
D|--8/8--8---------------------------------------------|
A|--8/10-10--------------------------------------------|
E|--6/10-10(x3)----------------------------------------|plays section 3 times

Verse: Bass riff is played for the first few times then the guitar comes in and plays 
again.

Notes played during 2nd verse.HE plays this again in the 2nd area of notes.
(Wah-Wah and distortion)

e|---------------------------------------------------------------------------|
B|---/13---------------------------------------------------------------------|
G|---/12---10h12--14b15r-----------------------------------------------------|
D|------------------------10\0-----------/10-10h13--13h15-15/10--------------|
A|---------------------------------------------------------------------------|
E|---------------------------------------------------------------------------|

In the breakdown near the end of the song he plays this:for how many ever times.

e|-----------------------------------------------|
B|-----------------------------------------------|
G|-----------------------------------------------|
D|-7/8-8-8-8-8-8-8-8-----------------------------|
A|-7/8-8-8-8-8-8-8-8-----------------------------|
E|-5/6-6-6-6-6-6-6-6-----------------------------|

The rest of the song they play the main riff. But in the last verse when he plays some 
they are the following:

e|---------------------------------------------------------------------------|
B|---------------------------------------------------------------------------|
G|---------------------------------------------------------------------------|
D|---------3-5-7-------------------------------------------------------------|
A|---0-3-5-------------------------------------------------------------------|
E|---------------------------------------------------------------------------|


| b  bend
| /  slide up
| \  slide down
| h  hammer-on
| p  pull-off
| ~  vibrato
| +  harmonic
| x  Mute note
===============================================================================
Tap to rate this tab
# A B C D E F G H I J K L M N O P Q R S T U V W X Y Z