Song name
# A B C D E F G H I J K L M N O P Q R S T U V W X Y Z

Rose Tattoo - Black Eyed Bruiser tab

Black Eyed Bruiser
Word and Music by: Rose Tattoo
Album: Blood Brothers (2007)
Tabbed by: Ruben Meijerink

Intro/Main Riff:

e|-------------------------------------|
B|-------------------------------------|
G|-------------------------------------|
D|--7-7-7-5-7--------------------------|
A|--x-x-x-x-x--------------------------|
E|--5-5-5-3-5--------------------------|

Chorus Riff

e|-----------------------------------|
B|-----------------------------------|
G|-----------------------------------|
D|--3---------5----------------------|
A|--3-(x16)---5--(x16)---------------|
E|--1---------3----------------------|

Play the Main Riff through the entire song. That's it, enjoy!
Tap to rate this tab
# A B C D E F G H I J K L M N O P Q R S T U V W X Y Z