Song name
# A B C D E F G H I J K L M N O P Q R S T U V W X Y Z

Rose Tattoo - Good Boys Dont Like Rock N Roll tab

|-----------------------|
|-----------------------|
|-2----4----4-6-4----2--|
|-2----4----4-6-4----2--|
|-0----2----2-4-2----0--|
|-----------------------|

|---------------------------|
|---------------------------|
|----5-----7-----5-----3~~--|
|----5-----7-----5-----3~~--|
|-0-0--0-0---0-0---0-0------|
|---------------------------|

|------------------|
|------------------|
|------------------|
|------------------|
|-------5-------7--|
|-0-0-0-3-0-0-0-5--|

www.rosetattoo.com.au/ 
Tap to rate this tab
 
# A B C D E F G H I J K L M N O P Q R S T U V W X Y Z