Song name
# A B C D E F G H I J K L M N O P Q R S T U V W X Y Z

Rose Tattoo - Bad Boy For Love tab

Help us improve GuitareTab! Take a short survey!
Rose Tattoo - Bad boy for love

Intro 4 times
|--------------------------------|
|--------------------------------|
|--------------------------------|
|-7---7---7---7---7---7---7---7--|
|-7---7---7---7---7---7---7---7--|
|-5---5---5---5---5---5---5---5--|
|
|
|--------------------------------|
|---------------------/14--------|
|-------------7--5--------14~~~--|
|-7---7---7---7--5---------------|
|-7---7---7----------------------|
|-5---5---5----------------------|

Verse 4 times
|--------------------------------|
|--------------------------------|
|--------------------------------|
|-7---7---7---7---7---7---7---7--|
|-7---7---7---7---7---7---7---7--|
|-5---5---5---5---5---5---5---5--|
|
|
|--------------------------------|
|--------------------------------|
|----------------7--5----2---2---|
|----------------7--5----2---2---|
|---------------------0----------|
|-5---5---5---5------------------|

Chorus 
|--------------------------------|
|--------------------------------|
|-7------------------------------|
|-7------------------------------|
|--------------------------------|
|--------------------------------|
|
|
|--------------------------------|
|--------------------------------|
|-7---7---7---7---7---7---7---7--|
|-7---7---7---7---7---7---7---7--|
|-5---5---5---5---5---5---5---5--|
|--------------------------------|

Intro riff once

then do this
|--------------------------------|
|--------------------------------|
|-7------------------------------|
|-7------------------------------|
|--------------------------------|
|--------------------------------|
|
|
|--------------------------------|
|--------------------------------|
|-7---7---7---7------------------|
|-7---7---7---7---3-----------5--|
|-5---5---5---5---3-----------5--|
|-----------------1-----------3--|

Verse

Chorus

Intro 

Solo (havnt got)

Chorus 

Then intro again

www.rosetattoo.com.au
Related for Bad Boy For Love tab