Song name
# A B C D E F G H I J K L M N O P Q R S T U V W X Y Z

Rose - Speed Over Beethoven tab

Hey everyone, this song is from Dance Dance Revolution Extreme. It's quite a catchy song
a real leg-burner. I decided to tab this song b/c I saw that there was none for this so
When I first figured it out, I was playing in drop-D tuning so that's how I'm tabbing 
but this can be played on normal tuning. I'll tab it straight through since it's a
short and repetitive song.

Have fun!

Intro:
e|-----------------------------------------------|
B|-----------------------------------------------|
G|-16-x8---9-x1---12-x1---14-x1---16-x8----------|
D|-16------9------12------14------16-------------|
A|-14------7------10------12------14-------------|
D|-----------------------------------------------|

e|-----------------------------------------------|
B|-----------------------------------------------|
G|-9-x1----------9-x1---16-x24-------------------|
D|-9------9-x1---9------16-----------------------|
A|-7------9------7------14-----------------------|
D|--------9--------------------------------------|

e|-----------------------------------------------|
B|-----------------------------------------------|
G|-9-x5---12-x5---14-x5---16-x8------------------|
D|-9------12------14------16---------------------|
A|-7------10------12------14---------------------|
D|-----------------------------------------------|

e|-----------------------------------------------|
B|-----------------------------------------------|
G|-9-x5----------9-x5----------------------------|
D|-9------9-x5---9-------------------------------|
A|-7------9------7-------------------------------|
D|--------9--------------------------------------|

Lyrics:
e|----------------------------------------------------------------|
B|----------------------------------------------------------------|
G|-12-x8-----------9-x8----------5-x8-----------------7-x8--------|
D|-12------12-x8---9------9-x8---5------5-x8---7-x8---7-----------|
A|-10------12------7------9------3------5------7------5-----------|
D|---------12-------------9-------------5------7------------------|

e|----------------------------------------------------------------|
B|----------------------------------------------------------------|
G|-12-x8-----------9-x8----------5-x8-----------------------------|
D|-12------12-x8---9------9-x8---5------5-x8---7-x8---9-x8--------|
A|-10------12------7------9------3------5------7------9-----------|
D|---------12-------------9-------------5------7------9-----------|

e|----------------------------------------------------------------|
B|----------------------------------------------------------------|
G|-12-x8-----------9-x8----------5-x8-----------------7-x8--------|
D|-12------12-x8---9------9-x8---5------5-x8---7-x8---7-----------|
A|-10------12------7------9------3------5------7------5-----------|
D|---------12-------------9-------------5------7------------------|

e|----------------------------------------------------------------|
B|----------------------------------------------------------------|
G|-12-x8-----------9-x8----------5-x8-----------------------------|
D|-12------12-x8---9------9-x8---5------5-x8---7-x8---9-x8--------|
A|-10------12------7------9------3------5------7------9-----------|
D|---------12-------------9-------------5------7------9-----------|

Outro:
e|-----------------------------------------------|
B|-----------------------------------------------|
G|-16-x8---9-x8---12-x8---14-x8---16-x8----------|
D|-16------9------12------14------16-------------|
A|-14------7------10------12------14-------------|
D|-----------------------------------------------|

e|-----------------------------------------------|
B|-----------------------------------------------|
G|-9-x8----------9-x8----------------------------|
D|-9------9-x8---9-------------------------------|
A|-7------9------7-------------------------------|
D|--------9--------------------------------------|

That should be about right, feel free to comment/use this as a launching point for a
tab. -Timbo
Tap to rate this tab
# A B C D E F G H I J K L M N O P Q R S T U V W X Y Z