Song name
# A B C D E F G H I J K L M N O P Q R S T U V W X Y Z

Rosenstolz - Liebe Ist Alles tab

Liebe Ist Alles - Rosenstolz

Großartiger Song. Hier für euch zusammengestellt. Zum Verse + Begleitung -Abschnitt : 
parallel zum Text spielen. Der Song ist so hier geschrieben wie der Song selbst, also 
mitspielen, und die Punkte finden wo welcher Einsatz ist. Recht einfach das Ganze.

Gruß euer Audimax_84

Intro:
	E|---------------------------|
	B|----------3~------------1~-|
	G|------5----------4-4-------|
	D|----3----------2-----------|  x 2
	A|--3----------2-------------|
	E|---------------------------|


Verse  + Begleitung :
	      Am               F                   G               G
	E|--------7--5--|--------3-1-0----|--------5-3--|--------3--|
	B|--------------|--------------3--|------0------|------0----|
	G|------2-------|------2----------|----0--------|----0------|
	D|----2---------|----3------------|--0----------|--0--------|
	A|--0-----------|--3--------------|-------------|-----------|
	E|--------------|-----------------|-------------|-----------|

	Am               F             F       G             G
	Hast du mir ein Wort zu sagen,     nur ein Gedanken dann.
	G
	Lass es Liebe sein.
	Am                F            F    G                     G
	Kannst du mir ein Bild beschreiben,    mit deinen Farben dann.
	          G
	Lass es Liebe sein.


Bridge + Begleitung :
	      Em           C
	E|-----------|-----------|
	B|------0----|------1----|
	G|--------0--|--------0--|
	D|----2------|----2------|
	A|--2--------|--3--------|
	E|-----------|-----------|


	Em       C     Em       C		   F              G
	Wann du gehst. Wieder gehst. Schau mir noch mal in’s Gesicht,
	          Em          Am
	sags mir oder sag es nicht.
	            F             G            Em             Am
	Dreh dich bitte noch mal um, und ich seh’s in deinem Blick,
	          F     G    Em    Am           F     G    Em    Am
	Lass es Liebe sein.           Lass es Liebe sein.




Verse 2 :
	Am                       F                 G           G
	Hast du nur noch einen Tag,   nur eine Nacht, dann, Lass es Liebe sein.
	Am                           F                          G
	Hast du nur noch eine Frage die ich nie zu fragen wage, dann,
	          G
	lass es Liebe sein.


Bridge + Begleitung :
	      Em           C
	E|-----------|-----------|
	B|------0----|------1----|
	G|--------0--|--------0--|
	D|----2------|----2------|
	A|--2--------|--3--------|
	E|-----------|-----------|

	Em       C     Em       C		   F              G
	Wann du gehst. Wieder gehst. Schau mir noch mal in’s Gesicht,
	          Em          Am
	sags mir oder sag es nicht.
	            F             G            Em             Am
	Dreh dich bitte noch mal um, und ich seh’s in deinem Blick,
	          F     G    Em    Am           F     G    Em    Am
	Lass es Liebe sein.           Lass es Liebe sein.


Chorus :
	Am             F          G                 Em             Am
	     Das ist alles was brauchen, noch viel mehr als große Worte.
	          F            G             Em            Am
	Lass das alles hinter dir, fang noch mal von vorne an.
	Am    F             G    Em            Am
	Denn,   Liebe ist Alles.    Liebe ist Alles.
	F            G     Em          Am
	  Liebe ist Alles. Alles was brauchen.
	F             G    Em            Am    F             G
	   Liebe ist Alles.   Liebe ist Alles.   Liebe ist Alles.
	Em            Am
	Alles was wir Brauchen.
	        F      G       Em     Am
	Lass es Liebe sein.
	        F      G       Em     Am
	Lass es Liebe sein.


Chorus x3


Outro :
	F   G   Em  Am   x4
Tap to rate this tab
 
# A B C D E F G H I J K L M N O P Q R S T U V W X Y Z