Song name
# A B C D E F G H I J K L M N O P Q R S T U V W X Y Z

Rosenstolz - Woran Hlt Sich Die Liebe tab

----------------------------------------------------------------------------
		   Woran hält sich die Liebe - Rosenstolz
----------------------------------------------------------------------------
Tabbed by: Fliegendes_Lama

Tuning: EADGBE
tempo ~146

Ist leider nicht ganz perfekt, aber zum sich selbst begleiten optimal und einfach.

intro
   
     h       v   v   v   v   h       v   v   v   v
E-||-2---------|-2---------|-0---------|-----------||
B-||-0---------|-0---------|-0---------|-----------||
G-||-2---------|-2---------|-0---------|-0---2---4-||
D-||-2---------|-2---------|-2-------2-|-2---2---2-||
A-||--------(0)|----(0)-(0)|--------(0)|(0)--------||
E-||-----------|-----------|-----------|-----------|| 2x 

strophe / refrain

     h       v   h       v   h       v   v   v   v
E-||-2---------|-2---------|-0---------|-----------|
B-||-0---------|-0---------|-0---------|-----------|
G-||-2---------|-2---------|-2---------|-0---2---4-|
D-||-2---------|-2---------|-2-------2-|-2---2---2-|
A-||--------(0)|--------(0)|--------(0)|(0)--------|
E-||-----------|-----------|-----------|-----------|

     h       v   v   v   v   h       v   v   v   v
 E-|-0---------|-0---------|-0---------|-----------||
 B-|-2---------|-2---------|-0---------|(0)-(0)-(0)||
 G-|-2---------|-2---------|-2---------|-0---2---4-||
 D-|-2---------|-2---------|-2-------2-|-2---2---2-||
 A-|--------(0)|----(0)-(0)|--------(0)|(0)--------||
 E-|-----------|-----------|-----------|-----------|| wdh.. 


h=halbton 1/2
v=viertelton 1/4


Woran hält sich die Liebe
Wenn da keiner mehr ist
Rosenstolz Woran soll ich nur glauben
Wenn sie mich nicht vermisst

Woran halten sich Träume
Woran Wenn der Tag sie uns nimmt
Warum mußt du versprechen
lt Wenn das Ende nicht stimmt

Woran hält sich die Liebe
Sich Vom Lieben ganz matt
Woran soll sie sich halten
Wenn sie dich nicht mehr hat
Die 
Woran hält sich ein Krieger
Der den Krieg nicht vergisst
Liebe Woran glauben Besiegte
Die man niemals vermisst

Woran hält sich die Liebe
Songtexte Vom Lieben ganz taub
Woran soll ich mich halten
Wenn du an mich nicht mehr glaubst
Songtext 
Woran soll ich mich halten
Wenn meine Welt schneller dreht
So viel Gedanken zum Denken
Lyrics Nur denken kann ich nicht mehr
Woran soll ich mich halten
Lyric Wenn meine Welt schneller dreht
So viel Gedanken, vom Denken
Bin ich ganz schwer
Liedertexte 
Woran hält sich mein Leben
Wenn es ohne dich lebt
Liedertext Warum muss ich verstehn
Wenn es doch weiter geht

Woran hält sich die Liebe
Alle Vom Lieben ganz matt
Woran soll sie sich halten
Wenn sie dich nicht mehr hat
Rosenstolz 
Woran hält sich die Liebe
Vom Lieben ganz taub
Woran Woran soll ich mich halten
Wenn du an mich nicht mehr glaubst
Tap to rate this tab
# A B C D E F G H I J K L M N O P Q R S T U V W X Y Z