Song name
# A B C D E F G H I J K L M N O P Q R S T U V W X Y Z

Rosenstolz - Gib Mir Mehr Himmel tab

GIB MIR MEHR HIMMEL - Rosenstolz

tabbed by: Wuschel


The chords are: Dm Bb C

and are played as follows during the whole song:

  Dm
e|---1-----0-----0----|---1-----0-----0----|
B|-----3-----3-----3--|-----3-----3-----1--|
G|-------2-----2------|-------2-----2------|
D|---0----------------|---0----------------|
A|--------------------|--------------------|
E|--------------------|--------------------|


  Bb
e|---1-----0-----0----|---1-----0-----0----|
B|-----3-----3-----3--|-----3-----3-----1--|
G|-------3-----3------|-------3-----3------|
D|--------------------|--------------------|
A|---1----------------|---1----------------|
E|--------------------|--------------------|


  C
e|---1-----0-----0----|---1-----0-----0----|
B|-----1-----1-----1--|-----1-----1-----1--|
G|-------0-----0------|-------0-----0------|
D|--------------------|--------------------|
A|---3----------------|---3----------------|
E|--------------------|--------------------|

It's not that easy, but after a bit of practise, it'll sound really good.
(Sorry, my English isn't that great - I'm German)
Tap to rate this tab
# A B C D E F G H I J K L M N O P Q R S T U V W X Y Z