Song name
# A B C D E F G H I J K L M N O P Q R S T U V W X Y Z

Rosesdead - Now This Feels Like The End tab

rosesdead - now this feels like the end.txt

E  :--15-----------------|----------- 3|  repeat 4X
B  :-----15---15------15-|--------15- |
G  :-------------15------|15---15----*|
D  :0-------0-------0----|---0-------*|
A  :0-------0-------0----|---0------- |
D  :0-------0-------0----|---0------- |

|----------------|------------------|
|----------------|------------------|
|----------------|5-/7-7-7----------|
|0-0-0-0-0-0-0-0-|------------------|
|0-0-0-0-0-0-0-0-|3-/5-5-5----------|
|0-0-0-0-0-0-0-0-|------------------|
 
palm mute open chord until octave is played.  listen for timing its pretty simple
Tap to rate this tab
 
# A B C D E F G H I J K L M N O P Q R S T U V W X Y Z