Song name
# A B C D E F G H I J K L M N O P Q R S T U V W X Y Z

Roseway - Undisclosed Truth tab

-------------------------------------------------------------------------------
			     Undisclosed Truth - Roseway
-------------------------------------------------------------------------------
Tabbed by: Alex Emry/Andrew Gay
Email: alexemry@hotmail.com

Once again, I'm friends with their guitarist, and he gave me the tabs, himself so I KNOW 
this is %100 correct.

This tab is only the intro. He is currently working on tabbing the full song out. And 
is the new version of the song, that will be on the bands new album, coming in October 2009.

Check them out at http://www.myspace.com/roseway

Tuning: Drop D (DADGBe)
Gtr. 1
e|------------------------------------|-(pick-----|
B|------------------------------------|--drag-----|
G|------------------------------------|--at end---|
D|-1->-------33-5->-------5/00--------|--of 2nd---|
A|-1->-------33-5->-------5/00---(2x)-|--measure)-|
D|-1->-------33-5->-------5/00--------|-----------|
			    ..

	Gtr. 2
e|------------------------------------------------|
B|--------------------------(3x)------------------|
G|-0--7h8-0-7h10-0h7p0-------------(2nd measure)--|
D|--------------------10p8p0-7h8p7-(7h8p7h8p7h8p7)|
A|------------------------------------------------|
D|------------------------------------------------|

e|--------------------------------------------------|
B|----------------10h11h13-11p10--------------------|
G|-0--7h8-0-7h10-0--------------12p10---------------|
D|--------------------------------------------------|
A|--------------------------------------------------|
D|--------------------------------------------------|


| /  slide up
| \  slide down
| h  hammer-on
| p  pull-off
| ~  vibrato
| +  harmonic
| x  Mute note
===============================================================================
Tap to rate this tab
 
# A B C D E F G H I J K L M N O P Q R S T U V W X Y Z