Guitaretab - guitar tabs
Song name
# A B C D E F G H I J K L M N O P Q R S T U V W X Y Z

Rosewood Thieves - Junkyard Julie tab

Highlighted       Show chord diagrams
The Rosewood Thieves -Junkyard Julie

Capo II


Intro
E|---12---12---12---12---10---10---10---10---8---8---8---8---7---7---7---7-|
B|---12---12---12---12---10---10---10---10---8---8---8---8---7---7---7---7-|
G|---12---12---12---12---10---10---10---10---8---8---8---8---7---7---7---7-|
D|---10---10---10---10---8----8-----8-----8---6---6---6---6---5---5---5--5-|
A|---10---10---10---10---8----8-----8-----8---6---6---6---6---5---5---5--5-|
E|---10---10---10---10---8----8-----8-----8---6---6---6---6---5---5---5--5-|


Riff 1x4
E|----------------------------------------1----1---1------|
B|----10----8-----5----3----1h3-----------1----1---1------|
G|---------------------------------0-2----2----2---2------|
D|-----------------------------------------3---3---3------|
A|-----------------------------------------3---3---3------|
E|------------------------------------------1---1---1-----|


C			F      
Iíve got a key with a lock that doesnít latch
Am			         F
Iíve got a hole in my jeans that needs to be patched
C			F
Oh Iíve got such a troubled mind
Am                                            F
I know thereís so many things that you could help me find
GFED
But I canít stop thinking of you all the time

Riff1x2
[ Tab from: http://www.guitaretab.com/r/rosewood-thieves/115426.html ]
C                         F
Iíve got a fever that just wonít break
Am                                    F
Iím at a parking meter but I donít got any change
C                                         F
It seems so much is going wrong these days
Am                                  F
I pray to God itís just a- a passing phase
GFED
Iím sure it wouldnít be like this if you had only stayed
Bridge 
G				F
It seems like everything keeps making my mind bring
E			D
Me right on back to you 
GFED
If you only knew

C					F
Well Iíve got a frame on the mantle with no photo inside
Am					F
Iíve got a horse in the stable that I donít know how to ride
C					F
Well Iíve got so many thoughts inside of my head
Am		F
Mostly of you laying in my bed
GFED
Without you with me girl I feel like Iím already dead

Solo?( I just play the riff a few times)

C			F
Iíve got a fan but it ainít cold enough
Am				F
I was dealt a bad hand but I donít know how to bluff
C				F
I had a church picked out and everything
Am				F
I had a payment down on a diamond ring
GFED
But since you left I guess none of this means anything 


Riff1
ÖJunkyard Julie
Riff1
ÖJunkyard Julie
Riff1
ÖJunkyard Julie
...

Related for Junkyard Julie tab