Song name
# A B C D E F G H I J K L M N O P Q R S T U V W X Y Z

Rosewood Thieves - Junkyard Julie tab

Intro:

E|----------------------------------------------------------------------|
B|-14--14--14--14-14--12--12--12--12-12--10--10--10--10-10--8--8--8--7--|
G|-14--14--14--14-14--12--12--12--12-12--11--11--11--11-11--9--9--9--7--|
D|-14--14--14--14-14--12--12--12--12-12--11--11--11--11-11--9--9--9--9--|
A|-12--12--12--12-12--10--10--10--10-10---9---9---9---9--9--7--7--7--9--|
E|----------------------------------------------------------------------|

 Riff 1:
    D                G
E|---7--5------------------|
B|--------6h7-5-3h5--------|
G|------------------3h4----| x4
D|-------------------------|
A|-------------------------|
E|-------------------------|

D		      G
Iíve got a key with a lock that doesnít latch
Bm			        E
Iíve got a hole in my jeans that needs to be patched
D
Oh Iíve got such a troubled mind
G
I know thereís so many things that you could help me find
A           G                F#m  Em
But I canít stop thinking of you
        Repeat Riff 1 x2
all the time

D               G
Iíve got a fever that just wonít break
Bm                           E
Iím at a parking meter but I donít got any change
D
It seems so much is going wrong these days
G
I pray to God itís just a- a passing phase
A                    G            F#m        Em
Iím sure it wouldnít be like this if you had only stayed

D, C

G         G   G    G    G      G      G	      G F G
It seems like everything keeps making my mind bring
G   G	    G       A
Me right on back to you
C#          D
If you only knew

A, G, F#m, Em

                D                  G
Well Iíve got a frame on the mantle with no photo inside
Bm                                    E
Iíve got a horse in the stable that I donít know how to ride
D
Well Iíve got so many thoughts inside of my head
G
Mostly of you laying in my bed
A           G            F#m        Em
Without you with me girl I feel like Iím already dead

Solo:
E|--------------------------------------------------5-5---5------|
B|------------6p5--6--6--6p5-----------8-6-5-----5h7--5h7-5h7----|
G|---4-6h7--7-----7----7-----7p4-6-7-7-------7-4-----------------|
D|-5-------------------------------------------------------------|
A|---------------------------------------------------------------|
E|---------------------------------------------------------------|

E|-------------9-9--7--7------9h10-10-12--12--10--10--9--9--7-7---|
B|-5-7-10b-9-7-----------10-8-----------14--14--12--12-10-10-8-8--|
G|----------------------------------------------------------------|
D|----------------------------------------------------------------|
A|----------------------------------------------------------------|
E|----------------------------------------------------------------|

D                     G
Iíve got a fan but it ainít cold enough
Bm                          E
I was dealt a bad hand but I donít know how to bluff
D
I had a church picked out and everything
G
I had a payment down on a diamond ring
A             G            F#m         Em
But since you left I guess none of this really means anything

Riff 1 until end,


That's it, there are a few problems in the solo I think, and there are probably a couple
changes I missed, but I think this is a bit better than the other version. There are
a few hammer-ons and pull-offs going on throughout the verses, but they change every 
so just make that stuff up yourself. Best of luck!
Tap to rate this tab
# A B C D E F G H I J K L M N O P Q R S T U V W X Y Z