Song name
# A B C D E F G H I J K L M N O P Q R S T U V W X Y Z

Rosewood Thieves - Silver Gun chords

Highlighted       Show chord diagrams
G                                    Am
Oh maria I didn't know I'd be such a wreck
                                       G     
When you didn't say goodbye before you left
G                                Am                                          
Oh maria I didn't know I'd be so blue
                                                 
But tonight I'm watching the sky turn to day
C                                        
Instead of sleeping next to you

G

G                                                          Am
You were always falling, falling asleep with all the lights on

So when I got home it was easy to see you were gone
C                           D#
It was easy to see you were gone

C        Am                  G
i didn't know things weren't right
                                    C
('cause your heart is like a silver gun)
C        Am                     G
I didn't know you were thinking twice
                                    C
('cause your heart is like a silver gun)
C              Am                  G
I guess that's just what your like
                                    C
('cause your heart is like a silver gun)
C        D#
A silver gun

G
Yeah

Solo:
e|-----------------------------------------------------------------|
B|------8-------8-10b-10b-----8------8-10b-10b-10b-10-8-------10b--|
G|--7/9-----7/9-----------7/9----7/9--------------------9-7-9------|
D|-----------------------------------------------------------------|
A|-----------------------------------------------------------------|
E|--------------------------------------------------------------==-|

e|--------------------------------------------|
B|-10b-10-8-------8--------8------------------|
G|----------9-7-9----9-7-9-----------9-7------|
D|---------------------------------------9----|
A|-----------------------------------------10-|
E|--------------------------------------------|


G                                               Am
Oh maria I didn't mean for your feelings to get hurt
                                         
Every night waiting for me to get off of work
C                           D#
I know what it's like to be waiting
C                                    D#
Worried you're the one being left behind
C                           D#
I know what it's like to be waiting all the time


C        Am                  G
i didn't know things weren't right
                                    C
('cause your heart is like a silver gun)
C        Am                     G
I didn't know you were thinking twice
                                    C
('cause your heart is like a silver gun)
C              Am                  G
I guess that's just what your like
                                    C
('cause your heart is like a silver gun)
C        D#
A silver gun

G
Bang bang bang yeah
Tap to rate this tab
# A B C D E F G H I J K L M N O P Q R S T U V W X Y Z