Song name
# A B C D E F G H I J K L M N O P Q R S T U V W X Y Z

Rosie And The Originals - Angel Baby tab

                                       (Must be tunned half step down)
Intro
E-------------------------|
B-------------------------|
G-------------------------|
D-7---7---7---4---4---4---|
A-7---7---7---4---4---4---|
E-5-0-5-0-5-0-2-0-2-0-2-0-|

Verse(Palmute)
E-------------------------------------------------|
B-------------------------------------------------|
G-------------------------------------------------|
D-7-7-7-7-7-7-7-7-7-7-7-7-4-4-4-4-4-4-4-4-4-4-4-4-|
A-7-7-7-7-7-7-7-7-7-7-7-7-4-4-4-4-4-4-4-4-4-4-4-4-|
E-5-5-5-5-5-5-5-5-5-5-5-5-2-2-2-2-2-2-2-2-2-2-2-2-|

E-------------------------------------------------|
B-------------------------------------------------|
G-7-7-7-7-7-7-7-7-7-7-7-7-9-9-9-9-9-9-9-9-9-9-9-9-|
D-7-7-7-7-7-7-7-7-7-7-7-7-9-9-9-9-9-9-9-9-9-9-9-9-|
A-5-5-5-5-5-5-5-5-5-5-5-5-7-7-7-7-7-7-7-7-7-7-7-7-|
E-------------------------------------------------|

Chorus
E---------------------------------|---------------------------------|
B---------------------------------|---------------------------------|
G-7-7-7-7-9-9-9-9-----------------|-7-7-7-7-9-9-9-9-----------------|
D-7-7-7-7-9-9-9-9-7-7-7-7-4-4-4-4-|-7-7-7-7-9-9-9-9-7-7-7-7-4-4-4-4-|
A-5-5-5-5-7-7-7-7-7-7-7-7-4-4-4-4-|-5-5-5-5-7-7-7-7-7-7-7-7-4-4-4-4-|
E-----------------5-5-5-5-2-2-2-2-|-----------------5-5-5-5-2-2-2-2-|

E---------------------------------|---------------------------------|
B---------------------------------|---------------------------------|
G-7-7-7-7-9-9-9-9-----------------|-7-7-7-7-9-9-9-9-----------------|
D-7-7-7-7-9-9-9-9-7-7-6-6-4-4-2-2-|-7-7-7-7-9-9-9-9-7-7-7-7-4444444-|
A-5-5-5-5-7-7-7-7-7-7-6-6-4-4-2-2-|-5-5-5-5-7-7-7-7-7-7-7-7-4444444-|
E-----------------5-5-4-4-2-2-0-0-|-----------------5-5-5-5-2222222-|

Bridge
E-------------------------------------------------|
B-------------------------------------------------|
G-7-7-7-7-7-7-7-7-7-7-7-7-9-9-9-9-9-9-9-9-9-9-9-9-|
D-7-7-7-7-7-7-7-7-7-7-7-7-9-9-9-9-9-9-9-9-9-9-9-9-|
A-5-5-5-5-5-5-5-5-5-5-5-5-7-7-7-7-7-7-7-7-7-7-7-7-|
E-------------------------------------------------|

Order
Intro  x2
Verse  x2
Chorus x1 
Verse  x2
Chorus x1
Intro  x2
Bridge x1
Intro  x2
Chorus x2
Tap to rate this tab
 
# A B C D E F G H I J K L M N O P Q R S T U V W X Y Z