Song name
# A B C D E F G H I J K L M N O P Q R S T U V W X Y Z

Rosie Thomas - Since Youve Been Around tab

I know this isn't accurate, but it's at least a bit better than the one already submitted. 
I am only tabbing the 1. guitar, because the other one is hard to hear and not important. 

Standard Tuning
Capo: 2nd fret (2nd fret described as zero)

Intro/Verse:
e|--------------------|------------------------------------------------|
B|-------3--0-----3---|---------0---0---0---0--------------------------|
G|-----0-0------0-----|-X3----2---2---2---2----------------------------|
D|---0--------0-------|------------------------------------------------|
A|-3--------2---------|------------------------------------------------|
E|--------------------|------2-2-2-2-2-2-2-2---------------------------|

After this it goes something like this:

e|---3-3-3-3-3-3----3-3-3-3-3-3---|------2------------------------------|
B|---3-3-3-3-3-3----3-3-3-3-3-3---|------3------------------------------|
G|---0-0-0-0-0-0----2-2-2-2-2-2---|-X3---0------------------------------|
D|---2-2-2-2-2-2----0-0-0-0-0-0---|------0------------------------------|
A|---X-X-X-X-X-X----X-X-X-X-X-X---|------2------------------------------|
E|---3-3-3-3-3-3----2-2-2-2-2-2---|-------------------------------------|

But those chords aren't exactly right...

Reser

Tap to rate this tab
# A B C D E F G H I J K L M N O P Q R S T U V W X Y Z