Song name
# A B C D E F G H I J K L M N O P Q R S T U V W X Y Z

Rosie Thomas - Since Youve Been Around tab

Verse:
d|---------0----------0-----|--------------------------------------------------|
B|-----------0----------0---|-------------0--------0---------0----------0------|
G|------0---------0---------|  x3-----0--------0--------0-----------0----------|
D|--------------------------|-----------0--------0--------0-----------0--------|
A|---3----------2-----------|--------------------------------------------------|
E|--------------------------|------2-------------------------------------------|
       I'm wandering.......


Break played inbetween verses
d|---------0----------0-----|--------------------------------------------------|
B|-----------0----------0---|-------------0--------0---------0----------0------|
G|------0---------0---------|  x3------0--------0--------0-----------0---------|
D|--------------------------|------------0--------0--------0-----------0-------|
A|---7----------5-----------|------3-------------------------------------------|
E|--------------------------|--------------------------------------------------|


d|---------------------------------------------------|
B|--------------0--------0---------0----------0------|
G|--------0---------0---------0-----------0----------|
D|-----------0---------0---------0-----------0-------|
A|---------------------------------------------------|
E|----2----------------------------------------------|

End on Em.
Tap to rate this tab
# A B C D E F G H I J K L M N O P Q R S T U V W X Y Z