Guitaretab - guitar tabs
Song name
# A B C D E F G H I J K L M N O P Q R S T U V W X Y Z

Ross Copperman - Theyll Never Know tab

Highlighted       Show chord diagrams
Theyíll Never Know

Ok, Ross messaged me on Myspace and told me it was in the 
key of Emaj...so that's what I'm going on. Itís all by ear
so Iím sure there are plenty mistakes. If you can help to 
make this a perfect tab any input is welcomed. 
Thanks! Enjoy!

Standard Tuning

(Note: the chorus is plucked the same way)
Intro and verse:
   E            B            C#m           A             E
e|--------------------------------------------------------------------
B|--------------------------------------------------------------------
G|-1-----1------8-----8------9------9------6-----6-------1-----1------
D|----2-----2------9-----9------11-----11-----7-----7-------2-----2---
A|----2-------2----9-------9----11-----11-----7--------7----2-------2-
E|-0-----0------7-----7------9------9------5-----5-------0-----0------

  B            A             E
|----------------------------------------------------
|----------------------------------------------------
|-8-----8------6-----6-------1-----1-----1-----1-----
|----9-----9------7-----7-------2-----2-----2-----2--
|----9-------9----7--------7----2-----2-----2-----2--
|-7-----7------5-----5-------0-----0-----0-----0-----


E                B                          C#m        A   
Hush, baby don't cry, just get through this night, overcome 
                E                B                       A
is all that you are, is broken inside, but they'll never know
              E
they'll never know
[ Tab from: http://www.guitaretab.com/r/ross-copperman/91411.html ]
E                        B                      C#m           A
Don't think that they'll change, they push you away, far from home,
                   E                B                       A
it's all that they are, is broken inside, but they'll never know, 
              E
they'll never know.

          A      E                 A     E 
Don't you cry, tonight   Rest your weary eyes
                 B               C#m                        A
Cuz all that you are is broken inside, it's nothing you can change, 
                     A                          E
it's nothing you can hide, it's nothing you can hide.

E, B, C#m, A, E, B, A, E

E                B                         C#m             A
Pink flowers and bows, it's all you should know, is summer days
                  E              B                        A
it's all that you are, beautiful child, but they'll never know 
              E
they'll never know.

              A      E                 A        E
So, Don't you cry, tonight   Rest your precious eyes
                 B                   C#m                    
Cuz all that you are, this beautiful child, it's nothing they can 
A                            A                          E
change, it's nothing you can hide, it's nothing you can hide.
Related for Theyll Never Know tab