Song name
# A B C D E F G H I J K L M N O P Q R S T U V W X Y Z

Ross Lynch - Cant Do It Without You Acoustic tab

Artist: Ross Lynch
Song: Can't Do It Without You
Tuning: Standard
Difficulty:Beginner
Capo on 2nd



Intro

        Em7                D
e|-----------------|-------2-------2-|
B|-------3-------3-|-----3---3---3---|
G|-----0---0---0---|---2-------2-----|
D|---2-------2-----|-0---------------|
A|-----------------|-----------------|
E|-0---------------|-----------------|




Verse


        G                Cadd9              Em7                D
e|-----------------|-----------------|-----------------|-------2-------2-|
B|-------3-------3-|-------2-------2-|-------3-------3-|-----3---3---3---|
G|-----0---0---0---|-----0---0---0---|-----0---0---0---|---2-------2-----|
D|---0-------0-----|---2-------2-----|---2-------2-----|-0---------------|
A|-----------------|-3---------------|-----------------|-----------------|
E|-3---------------|-----------------|-0---------------|-----------------|

There's no way I can | make it without you | Do it without you | Be here without you 


        G                Cadd9              Em7                D
e|-----------------|-----------------|-----------------|-------2-------2-|
B|-------3-------3-|-------2-------2-|-------3-------3-|-----3---3---3---|
G|-----0---0---0---|-----0---0---0---|-----0---0---0---|---2-------2-----|
D|---0-------0-----|---2-------2-----|---2-------2-----|-0---------------|
A|-----------------|-3---------------|-----------------|-----------------|
E|-3---------------|-----------------|-0---------------|-----------------|

It's no fun when you're | doing it solo | With you it's like whoa | Yeah and I know 




        G                Cadd9              Em7                D
e|-----------------|-----------------|-----------------|-------2-------2-|
B|-------3-------3-|-------2-------2-|-------3-------3-|-----3---3---3---|
G|-----0---0---0---|-----0---0---0---|-----0---0---0---|---2-------2-----|
D|---0-------0-----|---2-------2-----|---2-------2-----|-0---------------|
A|-----------------|-3---------------|-----------------|-----------------|
E|-3---------------|-----------------|-0---------------|-----------------|

I | own this dream | Cause I've got | you with me 




        G                Cadd9              Em7                D
e|-----------------|-----------------|-----------------|-------2-------2-|
B|-------3-------3-|-------2-------2-|-------3-------3-|-----3---3---3---|
G|-----0---0---0---|-----0---0---0---|-----0---0---0---|---2-------2-----|
D|---0-------0-----|---2-------2-----|---2-------2-----|-0---------------|
A|-----------------|-3---------------|-----------------|-----------------|
E|-3---------------|-----------------|-0---------------|-----------------|

There's no way I can | make it without you | Do it without you | Be here without you 
Tap to rate this tab
# A B C D E F G H I J K L M N O P Q R S T U V W X Y Z