Song name
# A B C D E F G H I J K L M N O P Q R S T U V W X Y Z

Rossi Vasco - Dormi, Dormi. tab

***************************************************
*   Andrea  Bertozzini.                           *
*                                                 *
*               e-mail: dreside@libero.it         *  
*                                                 *  
***************************************************

Autore: Vasco Rossi /Maurizio Solieri

Titolo: Dormi, Dormi.


intro:
    Em        D              C              G          Am7        G          D

e|--3------3--2-----3/2------0----------0---------------------0----------------|
B|-------5---------------3---------0/1------3-------3---1--3------3------------|
G|-----4---------2--------------0-----------------0----------------------------|
D|--2---------0---------------------------------0----------------------------0-|
A|---------------------------3--------------------------0---------------0/2----|
E|------------------------------------------3---------------------3---3--------|

         

e|----2------------11-------11-------------------------------------------------|
B|-------3---------------------------------------------------------------------|
G|-2---------2/11------11------------------------------------------------------|
D|-----------------------------------------------------------------------------|
A|-----------------------------------------------------------------------------|
E|-----------------------------------------------------------------------------|

    Em        D              C              G          Am7        G          D

e|--3------3--2-----3/2------0----------0---------------------0----------------|
B|-------5---------------3---------0/1------3-------3---1--3------3------------|
G|-----4---------2--------------0-----------------0----------------------------|
D|--2---------0---------------------------------0----------------------------0-|
A|---------------------------3--------------------------0---------------0/2----|
E|------------------------------------------3---------------------3---3--------|

            G (trasposizione di 'C')

e|----2-------------------7-----------------------7----------------------------|
B|-------3----------8---------8-------------8--------8-------------------------|
G|-2-------------7-----7---------7-------7-----7--------7----------------------|
D|-----------------------------------------------------------------------------|
A|----------10-----------------------10----------------------------------------|
E|-----------------------------------------------------------------------------|


 C        G      C       G 
Stai con me....ancora un po'
 C       G         C       G 
solo un momento... ti pagher?
 C           G        C        G
Soltanto un attimo....di Nostalgia
 C            G        D        G
oppure per un attimo e poi vai via!


/* Questo ? il ritornello e dovrebbe essere fatto con l'arpeggio dell'intro*/

    Em   D     C   G
e tu Parli.... parli...
 Am7       G       D     G
parli di "cose che passano....."
      Em  D       C   G
e poi sogni...... sogni
 Am7       G   D     G
sogni che poi svaniscono.

C        G       C       G
Stai con me... ci stai o no
C          G            C      G
ci stai un attimo...... un giorno
C           G       C      G   
ci stai per essere ancora mia....
C           G            D      G
oppure ci stai per non andare via!!


    Em   D  C   G
E tu dormi, dormi
 Am7          G      D    G
mentre i miei sogni crollano
    Em   D  C   G
e tu dormi, dormi    (In  questo Punto entra la chitarra distorta!)   
 Am7       G     D      D5/C5    G5     D5
e i sogni poi si scordano!


C5  G5   D5

C5  G5   D5

C5  G5   D5

 
 
  C5      G5     C5     G5
Stai con me.... oppure no
  C5        G5          C5      G5
soltanto un attimo..... Ti pagher? 
  C5       G5       C5     G5
ci stai per essere ancora mia
 C5       G5         D5       G5
oppure ci stai per non andare via.


     E5  D5       C5  G5
Ed il Sole....... Muore
 C5          G5     D5    B5
mentre i miei sogni crollano
      E5 D5   C5  G5
ed il Sole... dorme
 C5      G5     D5     B5
e i sogni poi si scordano!
     E5  D5    C5  G5
e tu Dormi.... dormi
 C5        G5    D5   B5
ora i tuoi sogni volano....
     E5  D5   C5  G5
e tu Dormi... dormi
 C5          G5      D5     G5
mentre i tuoi occhi "sorridono"!!



Questi  spartiti  sono stati  tirati gi? a orecchio e quindi ci pu? essere 
qualche sbaglio!

dreside@libero.it
Tap to rate this tab
# A B C D E F G H I J K L M N O P Q R S T U V W X Y Z