Guitaretab - guitar tabs
Song name
# A B C D E F G H I J K L M N O P Q R S T U V W X Y Z

Rossington-collins Band - Dont Misunderstand Me tab

Band: Rossington-Collins Band
Song: Donít Misunderstand Me
Album: Lynyrd Skynyrd Family
Tuning: Drop D
Tabbed By: aig91

Legend:
h= hammer on
p= pull off
b= full bend
^= half bend
r= release bend
/= slide up
\= slide down
x= mute
~= vibrato
*= pinch harmonic

Intro Rhythm:

e|--------------------------------------------------------------------|
B|--------------------------------------------------------------------|
G|--------------------------------------------------------------------|
D|-------------------------------------------------------0------------|
A|-3--3-2-0--------3--3-2-0------3--3-2-0------------0-3--------------|
D|----------3^p0------------3^------------3^p0---0-3------------------|

e|--------------------------------------------------------------------|
B|-----------------------------------------------------------3--------|
G|-----------------------------------------------------------2--------|
D|-----------------------------------------------------------0--------|
A|-0-2-3--3-2-0--------3--3-2-0------3--3-2-0------------0-3----------|
D|--------------3^p0------------3^------------3^p0---0-3--------------|


Intro Lead:

e|----------------------13--13---13-----------------------------------|
B|-13b-13b~~~13b~~~-13b-13b-13b--13b--10h13p10h13p10h13p10------------|
G|---------------------------------------------------------12b--12b*--|
D|--------------------------------------------------------------------|
A|--------------------------------------------------------------------|
D|--------------------------------------------------------------------|

e|--------------------------------------------------------------------|
B|--------------------------------------------------------------------|
G|-12b*-12b*-12b*-12b*r--12-12-12p10---\--7-5-------------------/7----|
D|--------------------------------------------5br-/7--3-5-5br-3-------|
A|--------------------------------------------------------------------|
D|--------------------------------------------------------------------|


Verse 1:

e|--------------------------------------------------------------------|
B|--------------------------------------------------------------------|
G|--------------------------------------------------------------------|
D|-------------------------------------------------------0------------|
A|-3--3-2-0--------3--3-2-0------3--3-2-0------------0-3--------------|
D|----------3^p0------------3^------------3^p0---0-3------------------|

e|--------------------------------------------------------------------|
B|--------------------------------------------------------------------|
G|--------------------------------------------------------------------|
D|-------------------------------------------------------------0------|
A|-0-2-3--3-2-0--------3--3-2-0------3--3-2-0------------0h3p0--------|
D|--------------3^p0------------3^------------3^p0---0-3--------------|


Chorus:

e|--------------------------------------------------------------------|
B|--------------------------------------------------------------------|
G|-----7----4---5-----7----4---5-----7----4---5-----7----4---5--------|
D|-----7----4---5-----7----4---5-----7----4---5-----7----4---5--------|
A|-----5----2---3-----5----2---3-----5----2---3-----5----2---3--------|
D|--------------------------------------------------------------------|

e|--------------------------------------------------------------------|
B|--------------------------------------------------------------------|
G|-5-5-5-5-5-5--------------------------------------------------------|
D|-5-5-5-5-5-5--------------------------------------------------------|
A|-3-3-3-3-3-3--------------------------------------------------------|
D|--------------------------------------------------------------------|


Solo Rhythm 1:

e|--------------------------------------------------------------------|
B|--------------------------------------------------------------------|
G|--------------------------------------------------------------------|
D|-------------------------------------------------------0------------|
A|-3--3-2-0--------3--3-2-0------3--3-2-0------------0-3--------------|
D|----------3^p0------------3^------------3^p0---0-3------------------|


Solo 1:

e|-------10--------13-15-15b^r---13-15-15p13----17--------------------|
B|----------10-13b---------------------------------20brp18------------|
G|-12brb---------------------------------------------------19-17-19---|
D|--------------------------------------------------------------------|
A|--------------------------------------------------------------------|
D|--------------------------------------------------------------------|

e|------17------------------------------------------------------------|
B|-20b-----18---------------------------------------------------------|
G|------------19------------------------------------------------------|
D|--------------------------------------------------------------------|
A|--------------------------------------------------------------------|
D|--------------------------------------------------------------------|


Verse 2:

e|--------------------------------------------------------------------|
B|--------------------------------------------------------------------|
G|--------------------------------------------------------------------|
D|--------------------------------------------------------------------|
A|-3--3-2-0--------3--3-2-0------3--3-2-0--------3--3-2-0-------------|
D|----------3^p0------------3^------------3^p0------------3^----------|

e|--------------------------------------------------------------------|
B|--------------------------------------------------------------------|
G|--------------------------------------------------------------------|
D|---------------------------------------------------------0----------|
A|-3--3-2-0--------3--3-2-0------3--3-2-0------------0h3p0------------|
D|----------3^p0------------3^------------3^p0---0-3------------------|


Chorus:
[ Tab from: http://www.guitaretab.com/r/rossington-collins-band/110799.html ]
e|--------------------------------------------------------------------|
B|--------------------------------------------------------------------|
G|-----7----4---5-----7----4---5-----7----4---5-----7----4---5--------|
D|-----7----4---5-----7----4---5-----7----4---5-----7----4---5--------|
A|-----5----2---3-----5----2---3-----5----2---3-----5----2---3--------|
D|--------------------------------------------------------------------|


Instrumental Break (Bass and keyboard solo)


Solo Rhythm 2:

e|--------------------------------------------------------------------|
B|--------------------------------------------------------------------|
G|--------------------------------------------------------------------|
D|--------------------------------------------------------0-----------|
A|-3--3-2-0--------3--3-2-0------3--3-2-0------------/3p0-------------|
D|----------3^p0------------3^------------3^p0---0-3------------------|

e|--------------------------------------------------------------------|
B|--------------------------------------------------------------------|
G|--------------------------------------------------------------------|
D|-------------------------------------------------------------0------|
A|-0-2-3--3-2-0--------3--3-2-0------3--3-2-0------------0h3p0--------|
D|--------------3^p0------------3^------------3^p0---0-3--------------|


Solo 2: 

    Hold Bend
   /---------\
e|--------------------------------------------------------------------|
B|-13-----------------------------10------------10--------------------|
G|-12b-12b-12brp10----------10h12----12---10h12----12---10----12-10---|
D|-----------------12--10----------------------------------12-------12|
A|--------------------------------------------------------------------|
D|--------------------------------------------------------------------|

e|--------------------------------------------------------------------|
B|-------------------------------10--12--12^--12^--12^rp10------------|
G|--------7--------------10--12----------------------------12-10------|
D|-10ó10b---10p7------10-----------------------------------------12---|
A|---------------10-8-------------------------------------------------|
D|--------------------------------------------------------------------|

e|--------------------------------------------------------------------|
B|-10----------------------12^-x-x-12^-x-x-12^-x-x-12^-x-x-12^rp10----|
G|-10----------------------12^-x-x-12^-x-x-12^-x-x-12^-x-x-12^rp10----|
D|----12p10----10-12--10----------------------------------------------|
A|----------12--------------------------------------------------------|
D|--------------------------------------------------------------------|

e|--------------------------------------------------------------------|
B|-12-10--------------------------------------------------------------|
G|-12-10--------------------------------------------------------------|
D|-------12-----------------------------------------------------------|
A|--------------------------------------------------------------------|
D|--------------------------------------------------------------------|


Verse 3:

e|--------------------------------------------------------------------|
B|--------------------------------------------------------------------|
G|--------------------------------------------------------------------|
D|-------------------------------------------------------0------------|
A|-3--3-2-0--------3--3-2-0------3--3-2-0------------0-3--------------|
D|----------3^p0------------3^------------3^p0---0-3------------------|

e|--------------------------------------------------------------------|
B|--------------------------------------------------------------------|
G|--------------------------------------------------------------------|
D|-------------------------------------------------------------0------|
A|-0-2-3--3-2-0--------3--3-2-0------3--3-2-0------------0h3p0--------|
D|--------------3^p0------------3^------------3^p0---0-3--------------|

e|--------------------------------------------------------------------|
B|--------------------------------------------------------------------|
G|--------------------------------------------------------------------|
D|-------------------------------------------------------0------------|
A|-3--3-2-0--------3--3-2-0------3--3-2-0------------0-3--------------|
D|----------3^p0------------3^------------3^p0---0-3------------------|

e|--------------------------------------------------------------------|
B|--------------------------------------------------------------------|
G|--------------------------------------------------------------------|
D|-------------------------------------------------------------0------|
A|-0-2-3--3-2-0--------3--3-2-0------3--3-2-0------------0h3p0--------|
D|--------------3^p0------------3^------------3^p0---0-3--------------|


Chorus:

e|--------------------------------------------------------------------|
B|--------------------------------------------------------------------|
G|-----7----4---5-----7----4---5-----7----4---5-----7----4---5--------|
D|-----7----4---5-----7----4---5-----7----4---5-----7----4---5--------|
A|-----5----2---3-----5----2---3-----5----2---3-----5----2---3--------|
D|--------------------------------------------------------------------|

e|--------------------------------------------------------------------|
B|--------------------------------------------------------------------|
G|-----------7--------------------------------------------------------|
D|--5--------7--------------------------------------------------------|
A|--5--------5--------------------------------------------------------|
D|--5-----------------------------------------------------------------|


Instrumental Break (chords): 

D G C G
D G C G
D G C G
D G C G


Outro:

e|--------------------------------------------------------------------|
B|--------------------------------------------------------------------|
G|--------------------------------------------------------------------|
D|--------------------------------------------------------------------|
A|-3--3-2-0--------3--3-2-0------3--3-2-0--------3--3-2-0---0-2-------|
D|----------3^p0------------3^------------3^p0------------3-----------|

e|--------------------------------------------------------------------|
B|--------------------------------------------------------------------| 
G|--------------------------------------------------------------------|
D|--------------------------------------------------------------------|
A|-3--3-2-0--------3--3-2-0------3--3-2-0--------3--3-2-0---0-2-------|
D|----------3^p0------------3^------------3^p0------------3-----------|


*Fade Out*
Related for Dont Misunderstand Me tab