Song name
# A B C D E F G H I J K L M N O P Q R S T U V W X Y Z

Rotersand - One Level Down tab

-------------------------------------------------------------------------------
			     One Level Down - Rotersand
-------------------------------------------------------------------------------
Tabbed by: Steve
Email: domotashu@hotmail.com

Tuning: Standard

e|-------------------------|-------------------------|
B|-----------1-------------|-----------0-------------|
G|--------0----------------|--------0----------------|
D|-----2-------------2-----|-----2-------------2-----|
A|--3-------------3-----3--|--2-------------2-----2--|
E|-------------------------|-------------------------|

e|--------------0----------|-------------------------|
B|-----------1-------1-----|-----------1-------------|
G|--------2----------2-----|--------2----------2-----|
D|-----2----------2-----2--|-----3-------------3-----|
A|--0----------------------|--3-------------3-----3--|
E|-------------------------|-------------------------|

Afterward, you can strum the following chords; C, Em, Am, Fmaj7 to your liking since the 
is repeated only a certain number of times. If you spot any mistakes, or see room for 
please comment.

http://www.rotersand.net/
Tap to rate this tab
 
# A B C D E F G H I J K L M N O P Q R S T U V W X Y Z