Song name
# A B C D E F G H I J K L M N O P Q R S T U V W X Y Z

Rotting Christ - The Sign Of Evil Existence tab

-------------------------------------------------------------------------------
			     The Sign of Evil Existence - Rotting Christ
-------------------------------------------------------------------------------
This is my tab of The Sign of Evil Existence by legendary Italian black metal 
band, Rotting Christ from their 1st Album Thy Mighty Contract (1994). Enjoy!

Tabbed by:Heavy Sullivan (Bloated Carcass)
Email:ryansullivan666@yahoo.com

Tuning:D

Riff 1A
d|----------|
A|----------|
F|-44444444-|
C|-22222222-|
G|----------|
D|----------|
   ........

Riff 1B
d|----------------|
A|----------------|
F|-44444444-------|
C|-22222222-5-5---|
G|----------3-3---|
D|----------------|
   ........

Riff 2
d|-------------------------------------------------------------------|
A|-------------------------------------------------------------------|
F|-444444554444447744444455444444------------------------------7/9-9-|
C|--------------------------------7=5-----5544------------5544-5/7-7-|
G|------------------------------------3333----555555553333-----------|
D|-------------------------------------------------------------------|
   ..............................     ........................

Riff 3
d|------------------------------------------3333333322220--|
A|---------------------------------------------------------|
F|-4-----9---7-5555555544442222----------------------------|
C|-2---777-555------------------4-----7---5----------------|
G|------------------------------2---555-333----------------|
D|---------------------------------------------------------|
       ..  ..  ................     ..  ..  ............   

Ending
d|---|
A|---|
F|-4-|
C|-2-|
G|---|
D|---|

Order:
Riff 1A 4x
Riff 1B 4x
Riff 2  4x
Riff 3  2x
Riff 2  4x
Riff 3  2x
Ending  1X

| /  slide up
| \  slide down
| h  hammer-on
| p  pull-off
| ~  vibrato
| +  harmonic
| x  Mute note
===============================================================================
Tap to rate this tab
 
# A B C D E F G H I J K L M N O P Q R S T U V W X Y Z