Guitaretab - guitar tabs
Song name
# A B C D E F G H I J K L M N O P Q R S T U V W X Y Z

Rotting Christ - A Dead Poem tab

Song: A Dead Poem
Artist: Rotting Christ
Album:A Dead Poem
Tabbed by: Twizted134
Part: Full Song
-Note-: This is only one of the guitars so don't be dissapointed if it doesn't sound exactly like the song 
[ Tab from: http://www.guitaretab.com/r/rotting-christ/34575.html ]
Intro: Acoustics Guitar clean (EADGBe)						
										
e----2-----2-----0-----0---------|----2-----2-----0-----0--------|		
B----------------------------3h5-|----------------------------3h5|		
G--4---4-4---4-4---4-4---4-4-----|--4---4-4---4-4---4-4---4-4----|		
D--------------------------------|-------------------------------|		
A--------------------------------|-------------------------------|		
E--------------------------------|-------------------------------|		
										
									
e----2-----2-----0-----0---------|----2-----2--------------------|		
B----------------------------3h5-|----------------3-----5-----3--|		
G--4---4-4---4-4---4-4---4-4-----|--4---4-4---4-4---4-4---4-4----|		
D--------------------------------|-------------------------------|		
A--------------------------------|-------------------------------|		
E--------------------------------|-------------------------------|		
										
play that three times then play this:                                           
                                                                                
                                                                                
                                                                                
e----2-----2-----0-----0---------|----2-----2-----0-----0--------|              
B----------------------------3h5-|----------------------------3h5|              
G--4---4-4---4-4---4-4---4-4-----|--4---4-4---4-4---4-4---4-4----|             / 
D--------------------------------|-------------------------------|            /  
A--------------------------------|-------------------------------|           /   
E--------------------------------|-------------------------------|          /---|   
                                                                            \   |
                                                                             \  | 
e----2-----2-----0-----0---------|----2-----2-----------------------------|   \ | 
B----------------------------3h5-|----------------------------------------|    \|
G--4---4-4---4-4---4-4---4-4-----|--4---4-4---4-4-------------------------|     |
D--------------------------------|----------------------------------------|     |
A--------------------------------|-----------------101010101010101010-----|     |
E--------------------------------|-----------------8 8 8 8 8 8 8 8 8 -----|     |
                                                                                |
not too shure about this part but it sounds good when i play it.                |
                                                                                |
Riff 1                                                                          |
                                                                                |
e---------------|----------------|----------------|-------------------|         |
B---------------|----------------|----------------|-------------------|         |
G---------55-5-4|---------55-5-4-|---------55-5-4-|-------------22-44-|         |
D-2-222-2577-7-5|-2-222-2577-7-5-|-2-222-2577-7-5-|-2-222-22-33-22-44-|         |
A-2-222-2577-7-5|-2-222-2577-7-5-|-2-222-2577-7-5-|-2-222-22-33-00-22-|         |
E-0-000-03------|-0-000-03-------|-0-000-03-------|-0-000-00-11-------|         |
                                                                                |
play this riff three times then play the last part of the intro :---------------| 

then play the riff two more times and then is the chorus:

e-------------------------------------------------------------|
B-------------------------------------------------------------|
G----------------------------------------9---9-7--------9-7-9-|
D---9-10---9h10p9----9----9-10-9h10p9---------------99--------|
A-7---------------10----10------------10---------10-----------|
E-------------------------------------------------------------|

Play this four times then comes the solo which i can't tab coz i'v only been playing
for three months but this is what the backing guitar does:

e----------------------------|---------------------------------
B----------------------------|---------------------------------
G-2-4-4-4-2-4-4-4-2-4-4-4--4-|-2-4-4-4-2-4---2-----------------
D-2-4-4-4-2-4-4-4-2-4-4-4--4-|-2-4-4-4-2-4---2-5-5-5/4-5-------
A-0-2-2-2-0-2-2-2-0-2-2-2--2-|-0-2-2-2-0-4---0-5-5-5/4-5-------
E----------------------------|-----------------3-3-3/2-5-------

this is played throughout the solo and then it goes back to riff 1
song finishes with :

e----------------------------|
B----------------------------|
G-4--------------------------|
D-2--------------------------|
A-2--------------------------|
E-0--------------------------|



Mail me for corrections at killerspongei@hotmail.com
Related for A Dead Poem tab