Song name
# A B C D E F G H I J K L M N O P Q R S T U V W X Y Z

Rotting Christ - A Sorrowful Farewell tab

"A Sorowfull Farewell" - Rotting Christ
	TAB by Alsvartr (Thirdeye)

Standard Tunning

RIFF A (Intro)
E|---------------------------------------------5----
B|-------------------------------------------5---5--
G|----------------------------------------6---------
D|--2-2-2-3-2--2-2-3-3-2--5-5-5-6-5--7--7-----------
A|--2-2-2-3-2--2-2-2-3-2--5-5-5-6-5--7--------------
E|--0-0-0-1-0--0-0-0-1-0--3-3-3-4-3--5--------------
					- - - - - - p.m

E|--------------------------------------------------
B|--4-2--------4-2-----------4--4---2-4-2-4-2-------
G|------5-4-2-------5-4-2--5---5--5-----------------
D|--------------------------------------------------
A|--------------------------------------------------
E|--------------------------------------------------

("...I praise...")
E|--------------------------------
B|--------------------------------
G|-----5--------------------------
D|--7--5--2---2-2-2--2-2-2--2-2-2-
A|--7--3--2---2-2-2--2-2-2--2-2-2-
E|--5-----0---0-0-0--0-0-0--0-0-0-
              - -    - -    - -  p.m 

Bridge
E|---------------------------------------------------------------
B|---------------------------------------------------------------
G|---------------------------------------------------------------
D|--2-2-2-2-2-2-2-2-2-2-2-2-2-2-2-2-2-2-2-2-2-2-2-2-2-2-2-2-2-2--
A|--2-2-2-2-2-2-2-2-2-2-2-2-2-2-2-2-2-2-2-2-2-2-2-2-2-2-2-2-2-2--
E|--0-0-0-0-0-0-0-0-0-0-0-0-0-0-0-0-0-0-0-0-0-0-0-0-0-0-0-0-0-0--
    - - - - - - - - - - - - -     - - - - - - - - - - - - -     p.m
Tap to rate this tab
# A B C D E F G H I J K L M N O P Q R S T U V W X Y Z