Song name
# A B C D E F G H I J K L M N O P Q R S T U V W X Y Z

Rotting Christ - Full Colour Is The Night tab

"Full Colour is the Night" - Rotting Christ



E|----------------------------------
B|----------------------------------
G|----------------------------------
D|--7-7-7-7-7-7-7-7-5-5-5-5-5-------
A|--7-7-7-7-7-7-7-7-5-5-5-5-5--3-2--
E|--5-5-5-5-5-5-5-5-3-3-3-3-3-------


E|------------------------------------------------------------------
B|------------------------------------------------------------------
G|------------------------------------------------------------------
D|--7-7-7-7-7-7-7-7-5-5-5-5-5-------3-3-3-3-3-3-3-3-3-3-3-3-3-5-7---
A|--7-7-7-7-7-7-7-7-5-5-5-5-5--3-2--3-3-3-3-3-3-3-3-3-3-3-3-3-5-7---
E|--5-5-5-5-5-5-5-5-3-3-3-3-3-------1-1-1-1-1-1-1-1-1-1-1-1-1-3-5---
Tap to rate this tab
 
# A B C D E F G H I J K L M N O P Q R S T U V W X Y Z