Song name
# A B C D E F G H I J K L M N O P Q R S T U V W X Y Z

Rotting Christ - Sign Of Evil Existance tab

Artist: ROTTING CHRIST
Song: "Sign of Evil Existance"
Album: "Thy Mighty Contract"
Tuning: Regular "E"
Transcribed by: Alexis Xanthopoulos
E-Mail: zorba@kurir.net
URL: http://w1.858.telia.com/~u85802370/ochoros

Notation guide: ^ = palm muted

Notes: I didnīt have the time to put in the timing or the structure, but If
you play
along with the record of this great classic song, you will understand. Good
luck, Alexis.


Wind riff intro

E
|=-----------------------------------------------------------------------=|
B
|=-----------------------------------------------------------------------=|
G
|=-----------------------------------------------------------------------=|
D
|=-^-^-^-^-^-^-^-^-^-^-^-^-^-^-^-^-^-^-^-^-^-^-^-^-^-^-^-^-^-^-^-^-^-^-^-=|
A
|=-5-5-5-5-5-5-5-5-5-5-5-5-5-5-5-5-5-5-5-5-5-5-5-5-5-5-5-5-5-5-5-5-5-5-5-=|
E
|=-----------------------------------------------------------------------=|


Intro riff 2

E
|=-----------------------------------------------------------------------=|
B
|=-----------------------------------------------------------------------=|
G
|=-----------------------------------------------------------------------=|
D
|=-^-^-^-^-^-^-^-^-^-^-^-^-^-^-^-^-^-^-^-^-^-^-^-^-----------------------=|
A
|=-5-5-5-5-5-5-5-5-5-5-5-5-5-5-5-5-5-5-5-5-5-5-5-5-8---8-----------------=|
E
|=-------------------------------------------------6---6-----------------=|


Verse riff, every note palm muted

E |=------------------------------------------------------------------=|
B |=------------------------------------------------------------------=|
G |=---------------55-------------------------------------------------=|
D |=-------88777777--777777887777----------------------------55777777-=|
A |=-555555----------------------8888----8877------------8877---------=|
E |=---------------------------------6666----888888666666-------------=|


Chorus riff, second guitar in paranthesis

E
|=-----------------------------------------------------------------------=|
B
|=---------------------------------------------(6666-55-33)--------------=|
G
|=--------------^^^^^^^^-------------------------------------------------=|
D
|=-7---^^-12-10-33333333-2222------2---^^-5-^-3--------------------------=|
A
|=-5---55-10-8--11111111-0000-5555-0---00-3-0-1-8888-77-55---------------=|
E
|=----------------------------3333---------------------------------------=|
Tap to rate this tab
# A B C D E F G H I J K L M N O P Q R S T U V W X Y Z