Song name
# A B C D E F G H I J K L M N O P Q R S T U V W X Y Z

Rotting Christ - Non Serviam tab

----------------------------------------------------------------------------
			     NON SERVIAM - Rotting Christ
----------------------------------------------------------------------------
Tabbed by: Benjamin Gheysels
Date: 2006-3-11
Album: Non serviam

Tuning: standard tuning

| h  hammer-on
| p  pull-off
| ~  vibrato
| b  bend
| .  mute note
| ps pick scrape


Riff 1: this is also the verse riff
|----------------------------------------------------|
|----------------------------------------------------|
|----------------------------------------------------|
|--------------------------------------------7-------|
|--------------------------------------3-3-3/5-------|
|---0-0-0-0-0-0-0-0--3-3-3-3--5-5-5-5----------------|
    . . . . . . . .  . . . .  . . . .  . . .

The keyboard plays the little riff below over and over again during 
the intro. I transcribed it for the guitar. Play this 16 times 
(til singing starts). When singing begins, you play Riff 1.


keyboard riff
|--------------------|
|--------------------|
|---10-9-7-9hold-----|
|--------------------|
|--------------------|
|--------------------|


Riff 2: chorus (play 3 times). Play Riff 1 as background during the chorus
|------------------------------------|
|------------------------------------|
|---4h5p4h7-5hold---4-5---4hold------|
|-----------------------7------------|
|------------------------------------|
|------------------------------------|
                    . . .


then you play this slight variation

|-------------------------/12hold----|
|------------------------------------|
|---4h5p4h7-5hold---4-5--------------|
|-----------------------7------------|
|------------------------------------|
|------------------------------------|
                    . . .


Riff 3: play this 3 times

|------------------------------------------------|
|------------------------------------------------|
|----------7hold----7------------------7---------|
|---10-9-7------------10-9-7hold---------9hold---|
|-----------------------------------10-----------|
|------------------------------------------------|
     . . .           . . . 


then you play this
|------------------------------------------------|
|------------------------------------------------|
|----------7hold----7----------------------------|
|---10-9-7------------10-9-7hold----5h7p5-4-5----|
|------------------------------------------------|
|------------------------------------------------|
     . . .           . . . 


Riff 1

Riff 2

Riff 3

Riff 4: __________ this part is repeated 6 times
|-----------------|------------------------------------------------------|
|-----------------|------------------------------------------------------|
|-----------------|------------------------------------------------------|
|---5-5-7h9hold---|----------9------------7-9-------------(9)/10-7-9hold-|
|-----------------|-7-10-9-7-----7-10-9-7-----10-9hold-------------------|
|-----------------|------------------------------------------------------|
      . .           . .  . .     . .  . .


Riff 5: play 4 times
|-------------------------------|
|-------------------------------|
|-------------------------------|
|---2------------5-5----4-4-----|
|---2------------3-3----2-2-----|
|---0-0-0-0-0-0-----------------|


Riff 6: play 4 times
|----------------------------------------------------------------------|
|----------------------------------------------------------------------|
|----------------------------------------------------------------------|
|---9------------------------------------------------------------------|
|---7ring--7-7-7-7stop--7-7-7-7--5-5--7stop----7-7-7-7--5-5stop--5-5---|
|----------------------------------------------------------------------|
           . . . .      . . . .  . .  .        . . . .  . .      . .


Riff 7: play 4 times (Riff 6 is the background)
|------------------------------------------------------------------|
|----------------------?-?-----------------------------------------|
|---9------------7-------7---6h7p6h7p6---------------------7hold---|
|-----10-9hold-----8-7-8-----------------7-------------9-7---------|
|------------------------------------------10-7hold----------------|
|------------------------------------------------------------------|


Riff 8: play 4 times (don't let the notes ring!)
|-------------------------------------------------------|
|-------------------------------------------------------|
|---9---7---2---4---5---4-------2---5---4---2---7---9---|
|---------------------------5---------------------------|
|-------------------------------------------------------|
|-------------------------------------------------------|


Riff 1: play 2 times (add the keyboard bit as well). Add a pick scrape

Riff 2: play 4 times


That's it! Enjoy!


============================================================================

============================================================================
Tap to rate this tab
# A B C D E F G H I J K L M N O P Q R S T U V W X Y Z