Guitaretab - guitar tabs
Song name
# A B C D E F G H I J K L M N O P Q R S T U V W X Y Z

Rotting Christ - Snowing Still tab

----------------------------------------------------------------------------
			     SNOWING STILL - Rotting Christ
----------------------------------------------------------------------------
Tabbed by: Benjamin Gheysels
Date: 2006-3-14
Album: Triarchy of the lost lovers

Tuning: standard tuning

| h  hammer-on
| p  pull-off
| ~  vibrato
| b  bend
| .  mute note
| ps pick scrape


Tuning E A D G B E

Riff 1: this is the verse riff. Play 4 times
|--------------------------------------------------------------|
|--------------------------------------------------------------|
|------------------------------------(7)/9hold----7-7h9p7------|
|--2------/5-4----------4-5-7hold-------------------------9----|
|--2-----------4-4-4-------------------------------------------|
|--0ring-------------------------------------------------------|


Riff 2: this is the chorus. Play 2 times
|--------------------------------------------------------------------------|
|--------------------------------------------------------------------------|
|--9--------7-9-9-9hold----7p4h7/9~---9---------7-9-9-9hold----7-9p7-------|
|--9----------------------------------9------------------------------9hold-|
|--7ring------------------------------7ring--------------------------------|
|--------------------------------------------------------------------------|

after second time you play this:
|------------------------|
|------------------------|
|------------------------|
|---2-------2------------|
|---2-------2------------|
|---0--0-0--0--0-0-------|
       . .     . .

Riff 1: 4 times

Riff 2: 2 times

Solo: play Riff 3 as background
[ Tab from: http://www.guitaretab.com/r/rotting-christ/70177.html ]
Riff 3: play 2 times
|--------------------------------------------------------------------------|
|--------------------------------------------------------------------------|
|--------------------------------------------------------------------------|
|--2-------2----------------5---------2-------2----------------5------5/7--|
|--2-------2----------------3ring-----2-------2----------------3ring--3/5--|
|--0--0-0--0--2/3-2-3-5-3-------------0--0-0--0--2/3-2-3-5-3---------------|
      . .       . . . . .                . .       . . . . .

after second time you play this:
|------------------------------|
|------------------------------|
|------------------------------|
|---2-------2------------------|
|---2-------2------------------|
|---0--0-0--0--2/3-2-3-5-3-----|
       . .       . . . . .

Riff 4: play 7 times (palm mute the notes with an "," slightly)
|-----------------------------------------------|
|-----------------------------------------------|
|-----------------------------------------------|
|---5---5-4-----7---5-4--------2----------------|
|---3-----------5-------7~-----2----------------|
|------------------------------0--0-0-0-0-0-0---|
        , ,         , , ,         . . . . . .

Riff 6: play this 2 times
|--------------------------------------------------------------------------|
|-----8-7hold---p5-7-5---8p7p5h7hold-------8-7hold---p5-7-5---8p7p5h7hold--|
|--------------------------------------------------------------------------|
|--5------------------------------------4----------------------------------|
|--3------------------------------------2----------------------------------|
|--------------------------------------------------------------------------|

Riff 5: play 4 times

Riff 6: play 2 times

Riff 7: keep playing this note for a while
|--------------|
|--------------|
|--------------|
|--------------|
|--------------|
|---0-0-0------|
    . . .

Riff 1: play 4 times

Riff 2: play 4 times

end with:
|------------|
|------------|
|------------|
|---2--------|
|---2--------|
|---0stop----|

============================================================================

============================================================================
Related for Snowing Still tab
Advertisement will be closed in 10 seconds