Guitaretab - guitar tabs
Song name
# A B C D E F G H I J K L M N O P Q R S T U V W X Y Z

Rotting Christ - Dive The Deepest Abyss tab

----------------------------------------------------------------------------
			     DIVE THE DEEPEST ABYSS - Rotting Christ
----------------------------------------------------------------------------
Tabbed by: Benjamin Gheysels
Date: 2003-3-13
Album: Thy mighty contract

Tuning: standard tuning


Riff 1
|-----------------------------------------------------|
|-----------------------------------------------------|
|----------10-----9-----7ring--------10-----9---------|
|------7-7----7-7---7-7----------7-7----7-7------7----|
|---7-----------------------------------------10------|
|---5-------------------------------------------------|
       . .    . .   . .          . .    . .  


Riff 2 (15"):
|---------------------------------------------------|
|---------------------------------------------------|
|---------------------------------------------------|
|----------------5------------3---------------------|
|---7------------3ring--3-3---1ring--1-1------------|
|---5ring--5-5-----------------------------3-3-3----|
           . .          . .          . .   . . .

|----------------------------------------------------------|
|----------------------------------------------------------|
|----------------------------------------------------------|
|----------------5------------3------------7-------5-------|
|---7------------3ring--3-3---1ring--1-1---5--5-5--3--3-3--|
|---5ring--5-5---------------------------------------------|
           . .          . .          . .      . .     . .

|---------------------------------------------------|
|---------------------------------------------------|
|---------------------------------------------------|
|----------------5------------3---------------------|
|---7------------3ring--3-3---1ring--1-1------------|
|---5ring--5-5-----------------------------3-3-3----|
           . .          . .          . .   . . .

|--------------------------------------------------------------|
|--------------------------------------------------------------|
|--------------------------------------------------------------|
|----------------5------------3--------------------------------|
|---7------------3ring--3-3---1ring--1-1----0-0-5-0-0-3-0-0----|
|---5ring--5-5-------------------------------------------------|
           . .          . .          . .    . . . . . . . .

[ Tab from: http://www.guitaretab.com/r/rotting-christ/70178.html ]
Riff 3 (30"): play 3 times, then this part once
                                        |
|---------------------------------------|-------------------------|
|---------------------------------------|-------------------------|
|---------------------------------------|-------------------------|
|-----------------------------------------------------------------|
|---7------------7-5-5------------------7-----------3-3-3---------|
|---5ring--5-5-5-------8-8-7------------5ring--5-5--------3-3-3---|
           . . . . . . . . .                   . .  . . . . . .


Riff 4 (1'18"):
|-------------------------------------------------|
|-------------------------------------------------|
|-------------------------------------------------|
|-------------------------------------------------|
|---7-------------7-------------7----------8-5----|
|---5ring--5-5-5--5ring--5-5-5--5ring--5-8--------|
           . . .         . . .         . . . .

|----------------------------------------------------|
|----------------------------------------------------|
|----------------------------------------------------|
|---9----------9-----7-------7----------7-5-5--------|
|---7ring--7-7---7-7---7-7---5ring--5-5-------8-7----|
|-------------------------------------------------8--|
           . . . . . . . .          . . . . . . . .


Riff 5 (1'47"): play 2 times (last time don't play the note between brackets)
|-------------------------------------------------------|
|-------------------------------------------------------|
|-------------------7----------5-----------5p4p2--------|
|------------------------------------------------5p3p2--|
|---7-------5-7-------5-5-5-5----5-5-5-5----------------|
|---5-------3-5-----------------------------------------|
                      . . . .    . . . .   . . . . . .

|-----------------------------------------------------------------|
|-----------------------------------------------------------------|
|-------------------7----------5-----------5/10-10p9-9/12(h14)----|
|-----------------------------------------------------------------|
|---7-------5-7-------5-5-5-5----5-5-5-5--------------------------|
|---5-------3-5---------------------------------------------------|
                      . . . .    . . . .   

Riff 3 (2'17")

Riff 4 (2'46")

Riff 1 (3'15")


That's it! Enjoy!

============================================================================

============================================================================
Related for Dive The Deepest Abyss tab