Song name
# A B C D E F G H I J K L M N O P Q R S T U V W X Y Z

Rough Trade - All Touch tab

one of their only hits, and the source of my user name :) this is only the tab for 
the synth sections, i'm not sure about the bass parts.

intro x2

E||--------------------------|---------------------------|
B||--------------------------|---------------------------|
G||--------------------------|---------------------------|
D||--------------------------|---------------------------|
A||--0--0--0--0--0--0--0--0--|--0--0-0-0--0--0--0--0--0--|
E||--------------------------|---------------------------|


verse
 
--------------------------|--------------------------|
--------------------------|--------------------------|
--------------------------|--------------------------|
--------------------------|--------------------------|
--0--0--0--0--0--0--0--0--|--------------------------|
--------------------------|--3--3--3--3--3--3--3--3--|



--------------------------|--------------------------|
--------------------------|--------------------------|
--------------------------|--------------------------|
--------------------------|--------------------------|
--------------------------|--------------------------|
--2--2--2--2--2--2--2--2--|--2--2--2--2--2--2--2--2--|



--------------------------|--------------------------|
--------------------------|--------------------------|
--------------------------|--------------------------|
--------------------------|--------------------------|
--0--0--0--0--0--0--0--0--|--------------------------|
--------------------------|--3--3--3--3--3--3--3--3--|


 
--------------------------|--------------------------|
--------------------------|--------------------------|
--------------------------|--------------------------|
--------------------------|--------------------------|
--2--2--2--2--2--2--2--2--|--0--0--0--0--0--0--0--0--|
--------------------------|--------------------------|


--------------------------|--------------------------|
--------------------------|--------------------------|
--------------------------|--------------------------|
--------------------------|--------------------------|
--0--0--0--0--0--0--0--0--|--------------------------|
--------------------------|--3--3--3--3--3--3--3--3--|

                    
                          chorus synth
 
--------------------------|-------0----2----0-----|
--------------------------|--3-----------------3--|
--------------------------|-----------------------|
--------------------------|-----------------------|
--------------------------|-----------------------|
--2--2--2--2--2--2--2--2--|-----------------------|


 
--2-------------------0--|--L---------------2--|----------------------|
-----0--0--0----0--3-----|---------------------|-----0-------------3--|
-------------------------|---------------------|----------------------|
-------------------------|---------------------|----------------------|
-------------------------|---------------------|----------------------|
-------------------------|---------------------|----------------------|


 
-------0----2----0-----|--2----------------0--|-------------------|
--L-----------------3--|-----0--------3-------|-------------------|
-----------------------|----------------------|-------------------|
-----------------------|----------------------|-------------------|
-----------------------|----------------------|-------------------|
-----------------------|----------------------|-------------------|


solo
 
--5------------4----|---------------0----|--5-----------------|
--------------------|--3-----------------|---------------9----|
--------------------|--------------------|--------------------|
--------------------|--------------------|--------------------|
--------------------|--------------------|--------------------|
--------------------|--------------------|--------------------|



--12------------------|--17------------------|--10------------------|
----------------19----|----------------21----|----------------17----|
----------------------|----------------------|----------------------|
----------------------|----------------------|----------------------|
----------------------|----------------------|----------------------|
----------------------|----------------------|----------------------|


 
--9-----------17------||
----------------------||
----------------------||
----------------------||
----------------------||
----------------------||


and that's it :)


Tap to rate this tab
 
# A B C D E F G H I J K L M N O P Q R S T U V W X Y Z