Song name
# A B C D E F G H I J K L M N O P Q R S T U V W X Y Z

Rovio - Angry Birds tab

ANGRY BIRDS

First section  0:00  0:21

e|---------7----------7----7-8-7-5-------------|
B|-5-7-8-5-----5-7-8-5--------------8--8-7-5---|
G|---------------------------------------------|
D|---------------------------------------------|
A|---------------------------------------------|
E|---------------------------------------------|



e|--------------5-7-------7-9-1091091012109------------|
B|-5-7-8-5----8-----5-----------------------12-11-12---|
G|-----------------------------------------------------|
D|-----------------------------------------------------|
A|-----------------------------------------------------|
E|-----------------------------------------------------|



e|--------------5-7-------7-9-1091091012109------------|
B|-5-7-8-5----8-----5-----------------------12-5-------|
G|-----------------------------------------------------|
D|-----------------------------------------------------|
A|-----------------------------------------------------|
E|-----------------------------------------------------|




e|-----9-10101010-109101210----10----10-10-9---------|
B|-12-----------------------12----12--------12-------|
G|---------------------------------------------9-9---|
D|---------------------------------------------------|
A|---------------------------------------------------|
E|---------------------------------------------------|



e|-----9-10101010-109101210----9-10-10-9------------------|
B|-12-----------------------12-----------12-12----12-12---|
G|----------------------------------------------9---------|
D|--------------------------------------------------------|
A|--------------------------------------------------------|
E|--------------------------------------------------------|





Second section  0:22  0:45

e|--------------------7--7--7---------------|
B|-5-4-5-7--8-7-8-10--11-11--11--11-11-11---|
G|-------------------------------9--9--9----|
D|------------------------------------------|
A|------------------------------------------|
E|------------------------------------------|



e|------------------------------------------|
B|-5-4-5-7--8-7-8-10--12-12--12--12-12-12---|
G|-------------------------------10-10-10---|
D|------------------------------------------|
A|------------------------------------------|
E|------------------------------------------|



e|-----------------------------15-15-15---|
B|-11-1111-10-11-11--11-11-11--12-12-12---|
G|-------------------9--9--9--------------|
D|----------------------------------------|
A|----------------------------------------|
E|----------------------------------------|



e|----------------------------------------|
B|-12-1112-13-12-12--11-11-11--12---------|
G|-------------------9--9--9------9-9-----|
D|----------------------------------------|
A|----------------------------------------|
E|----------------------------------------|



e|-------787-------------0-2-0--------------787-------------12-14-12---|
B|-8-7-8-----------7-7-8------------7-8-7-8---------7-7----------------|
G|-----------999-9----------------9-----------999-9-----9--------------|
D|---------------------------------------------------------------------|
A|---------------------------------------------------------------------|
E|---------------------------------------------------------------------|




Tap to rate this tab
# A B C D E F G H I J K L M N O P Q R S T U V W X Y Z