Song name
# A B C D E F G H I J K L M N O P Q R S T U V W X Y Z

Roxen - Tau Phir Aaoooo Mujh Ko tab

Band:Roxen
Song:Yaadein
Tabbed By:"Destiny The Band"
Managed By:Ahad Shahzad and Hasseeb-ul-Haque
Website:freewebs.com/destiny-theband
     
| /  slide up
| \  slide down
| h  hammer-on
| p  pull-off
| ~  vibrato
| +  harmonic
| x  Mute note
 
   The solo of the song is a little bit change 4rm the 1st one they introduce 3 years ago.The notes in the bracket should be played continously.
 e|-8h10-8-7h8-7-5h7-5-3-5---------------------------------------------------------------------8--8-8--8h10-10-10--8-10-(10-10-10-10-10-10)--|
B|-----------------------8h10-8----6-6-8--8-8---8-8--6-6--5--------------6---8h10-10--10h12-12----------------------------------------------|
G|---------------------------------------------------------7-7--5---5-5-7-------------------------------------------------------------------|
D|------------------------------------------------------------------------------------------------------------------------------------------|
A|------------------------------------------------------------------------------------------------------------------------------------------|
E|------------------------------------------------------------------------------------------------------------------------------------------|

Then the chorus part comes in lead which is played like this.
e|--12--10-10-10--8-8-8--7-7-7-7----12--10-10-10--8-8-8--7-7-7-7--8--7-7--7-8-7--5--5-5-5--7-7--7-8-10-10--------------------|
B|---------------------------------------------------------------------------------------------------------------------------|
G|---------------------------------------------------------------------------------------------------------------------------|
D|---------------------------------------------------------------------------------------------------------------------------|
A|---------------------------------------------------------------------------------------------------------------------------|
E|---------------------------------------------------------------------------------------------------------------------------|

Then again the chorus played on solo comes with a little bit change.
e|-12--10-10-10--8-8-8--7-7-7-7-----12--10-10-10--8-8-8--7-7-7-7--8--7-7--7-8-7-5--5-5-5--7-7-7----8--8-10--8--8-10--10/12---|
B|---------------------------------------------------------------------------------------------------------------------------|
G|---------------------------------------------------------------------------------------------------------------------------|
D|---------------------------------------------------------------------------------------------------------------------------|
A|---------------------------------------------------------------------------------------------------------------------------|
E|---------------------------------------------------------------------------------------------------------------------------|

 Well if you have any ???????relating to this please ask us on our website.We will try to sort it out.
 
Tap to rate this tab
# A B C D E F G H I J K L M N O P Q R S T U V W X Y Z