Song name
# A B C D E F G H I J K L M N O P Q R S T U V W X Y Z

Roxen - Chaltey Rahain tab

This is intro tab's of "Roxen's" one of the great songs "chaltey rahein" by me
DANIYAL MUSTAFA
from "karachi"
e-mail "daniyal_inc@hotmail.com"

s = slide
guitar 1
e|------------------------------------------------------------------------------------|
B|--------5--7--9-10-9-----5--7--9-10-9-----5--7--9-10-9s12---9--7--------------------|
G|------------------------------------------------------------------------------------|
D|------------------------------------------------------------------------------------|
A|------------------------------------------------------------------------------------|
E|------------------------------------------------------------------------------------|
guitar 2 play chord's e a b a on the back of this lead

e|------------------------------------------------------------------------------------|
B|--------5--7--9-10-9-----5--7--9-10-9-----5--7--9-10-9s12---9--7--------------------|
G|------------------------------------------------------------------------------------|
D|------------------------------------------------------------------------------------|
A|------------------------------------------------------------------------------------|
E|------------------------------------------------------------------------------------|
guitar 2 play chord's e a b a on the back of this lead

e|---------------------------------------------------------------------------------------|
B|--------5--7--9-10-9-----5--7--9-10-9-----5--7--9-10-9s12---9--7-----------------------|
G|---------------------------------------------------------------------------------------|
D|---------------------------------------------------------------------------------------|
A|---------------------------------------------------------------------------------------|
E|---------------------------------------------------------------------------------------|
guitar 2 play chord's e a b a on the back of this lead

e|------------------------------------------------------------------------------------|
B|--------5--7--9-10-9-----5--7--9-10-9-----5--7--9-10-9s12---14--16------------------|
G|------------------------------------------------------------------------------------|
D|------------------------------------------------------------------------------------|
A|------------------------------------------------------------------------------------|
E|------------------------------------------------------------------------------------|
guitar 2 play chord's e a b a on the back of this lead


e|-------12-11-12-11-12-11-12-11-12-11-12-11-12-11-12-11-------------|

e|-------11-10--11-10-11-10-11-10-11-10-11-10-11-10-11-10------------|

e|-------12-11-12-11-12-11-12-11-12-11-12-11-12-11-12-11-------------|

e|------11-10--11-10-11-10-11-10-11-10-11-10-11-10-11-10-11-10-11----|

e|--------2--4--2--4--2--4--2--4-4s7-7-7--7s9-9-9--7-7--4s2-----------------|
B|--------------------------------------------------------------------------|
G|--------------------------------------------------------------------------|
D|--------------------------------------------------------------------------|
A|-7s2----------------------------------------------------------------------|
E|--------------------------------------------------------------------------|

e|--------2--4--2--4--2--4--2--4-4s7-7-7--7s9-9-9--7-7--4s2-2 --------------|
B|--------------------------------------------------------------------------|
G|--------------------------------------------------------------------------|
D|--------------------------------------------------------------------------|
A|--------------------------------------------------------------------------|
E|--------------------------------------------------------------------------|

That's little easy and simple do try it and reply me with your mark's.
If you want roxen's original Tab's and Chord's contact me.
Tap to rate this tab
# A B C D E F G H I J K L M N O P Q R S T U V W X Y Z