Guitaretab - guitar tabs
Song name
# A B C D E F G H I J K L M N O P Q R S T U V W X Y Z
Home / R / Roxen / Sapnay tab

Roxen - Sapnay tab

Hi there
Well posting on ultimate guitar aswell bcz i have seen many guys posting my tabs on 
guitar so here is Sapnay by Roxen hope u like it
pm me ur comments on my ultimate guitar username "faiq"

***************************************************************************

Song	  - Sapnay
Band	  - RoXen
Album	  - Rozen-e-Deewar
Tabbed by - Faiq

x - times
s - Slide
p - pulloff
GTR I - Rhythm Guitarist Part
GTR II - Lead Guitarist Part


Rhythm Chords(GTR I)
Dm	xx0231
Am	x02210
A#5	x133xx
C	x32010

Lead Riff:A
e|------------------------------------------------|
b|------------------------------------------------|
g|------------------------------------------------|
d|--------3-------------------------3--------3-2--|
a|-5p3-------5---5p3----3-------1-1---1--3-3------|
e|------5------------5-----5----------------------| GTR II

Starts with Lead Riff A.. Play 2 times
then Rhythm Guitar kicks in :p, Play Riff A 3x more
now lyrics,

meri ankhoo key tootey hoye sapney, inh sapnoo ko awaz doo.(2x)

2x Riff A

meri tanhai key alam ki sansain, in sansoo ka sath do...

4x Riff A

*********************************************************************
e|------0------3-------0-------3------------------|
b|------------------------------------------------|
g|---2------2-------2-------2---------------------|
d|-0------2-------0-------2-----------------------|
a|------------------------------------------------|
e|------------------------------------------------|2x
khuwab main us rah pe chal diye
merey sapney hi merey apno ney kuchal diye.

e|------------------------------------------------|
b|------------------------------------------------|
g|--7-9s2---7-9s12-----(Lead)---------------------|

*********************************************************************

e|------------------------------------------------------------|
b|------------------------------------------------------------|
g|--7---------9---------10----------12----------------7-------|
d|--7---------9---------10----------12----------------7-------|
a|--5---------7---------8-----------10----------------5-------|
e|------------------------------------------------------------|
jis soch main doobi hai zindagi, us soch ko bhula bhi do


e|-------------------------------------------------------|
b|-------------------------------------------------------|
g|---7---------------3--------------5--------------------|
d|---7---------------3--------------5--------------------|
a|---5---------------1--------------3--------------------|
e|-------------------------------------------------------|
meri tanhai key alam ki sansain, in sansoo kaaaaaaaaaaaaaaaaaaaaaaa sath do

[ Tab from: http://www.guitaretab.com/r/roxen/80195.html ]
Repeat the **Riff A 4x(times)*** with the lyrics
sath dooo ho ho hoo, sath dooo , sath doooooooooooo.....

*********************************************************************

e|------------------------------------------------|
b|------------------------------------------------|
g|--s14--s14-12-12--s12-10-10-9-------------------|

*********************************************************************

e|------0------3-------0-------3------------------|
b|------------------------------------------------|
g|---2------2-------2-------2---------------------|
d|-0------2-------0-------2-----------------------|
a|------------------------------------------------|
e|------------------------------------------------|2x
ansoo bhi is ankh sey beh diye, gham joh diye woh seh liye

e|------------------------------------------------|
b|------------------------------------------------|
g|--7-9s2---7-9s14-----(Lead)---------------------| 2x

*********************************************************************

khamooshi main dobi hai zindai, khamoshi ko mita bhi do
e|-------------------------------------------------------|
b|-------------------------------------------------------|
g|---7---------------3--------------5--------------------|
d|---7---------------3--------------5--------------------|
a|---5---------------1--------------3--------------------|
e|-------------------------------------------------------|
meri tanhai key alam ki sansain, in sansoo kaaaaaaaaaaaaaaaaaaaaaaa sath do


Repeat the **Riff A 4x(times)*** with the lyrics
sath dooo ho ho hoo, sath dooo , sath doooooooooooo.....

*********************************************************************

e|-----12----13p12------12----15p12------12----13p12------12----15p12---|
b|--13----13---------13----13---------13----13---------13----13---------|
g|----------------------------------------------------------------------|
d|----------------------------------------------------------------------|


meri |ankhoo key tootey hoye |sapney, inh |sapnoo ko awaz doo
e|---|---13------------------|----8-------|----12--13-13-12--10-10--8---|
b|---|15---------------------|10----------|13------15-15-13--13-13-10---|
g|----------------------------------------------------------------------|


meri |tanhai key alam ki sansain, in sansoo ka sath do
e|---|----13-----------------------------------------|
b|---|15--------------13-----------------------------|
g|--------------------------------5-5-5-5-5-5-5-5-5-5|
d|--------------------------------5-5-5-5-5-5-5-5-5-5|
a|--------------------------------3-3-3-3-3-3-3-3-3-3|
e|---------------------------------------------------|

6x Riff A with lyrics


*********************************Copyright@Faiqrocks*****************************************
Related for Sapnay tab
Advertisement will be closed in 10 seconds