Song name
# A B C D E F G H I J K L M N O P Q R S T U V W X Y Z

Roxen - Mujhko Satao tab

Help us improve GuitareTab! Take a short survey!
Song: Mujhko satao
Band: RoX3n
Album: Rozan-e-Deewar
Tabbed by: Faiq

*********************************************************

Intro Rhtyhm
e|-------0----------0----------1---------1--------|
b|---1----------1----------1---------1------------|
g|-----2---2------2---2------2--2------2---2------|
d|------------------------------------------------|
a|-0----------0----------3---------3--------------|
e|------------------------------------------------|2x
Intro Lead
e|---3-5-3-3-5----3---5---------------------------|
b|-5------------5---5----5-8-5-6--5-8-5-6---------|
g|------------------------------------------------|
d|------------------------------------------------|
a|------------------------------------------------|
e|------------------------------------------------|2x

*********************************************************
Rhtym starts when Lead start 3rd time
e|------------------------------------------------|
b|------------------------------------------------|
g|-5-5--4-4--2------------------------------------|
d|-5-5--4-4--2--5---------------------------------|
a|-3-3--2-2--0--5---------------------------------|
e|--------------3---------------------------------|
Lead
e|------------------------------------------------|
b|------------------------------------------------|
g|-5-5-7-5--4-5-4--2-4-2--0-2---------------------|
d|------------------------------------------------|
a|------------------------------------------------|
e|------------------------------------------------|6x

*********************************************************
Rhtyhm
e|------------------------------------------------|
b|------------------------------------------------|
g|-5-5--5-5---------------------------------------|
d|-5-5--5-5--3-3--3-3-----------------------------|
a|-3-3--3-5--3-3--3-3-----------------------------|
e|-----------1-1--1-1-----------------------------|
Lead
e|------------------------------------------------|
b|------------------------------------------------|
g|-------5--------5--------7-------7--------------|
d|-7p5h7----7p5h7----7p5h7---7p5h7----------------|
a|------------------------------------------------|
e|------------------------------------------------|

Hummmmmmm ....rahein na raheinnnn .....
gummmmmmm......sahein na saheinnnn...
shaameinnnn .....dhalein na dhaleinnn......
yeh raatein ......kate na kate ............

*********************************************************

e|---------------------------------------------------|
b|---------------------------------------------------|
g|--Strumming----------------------------------------|
d|-7-7-7----3-3-3-|---------------------------5-5-5--|
a|-7-7-7----3-3-3-|---------------------------5-5-5--|
e|-5-5-5----1-1-1-|---------------------------3-3-3--|

To phir aao ....mujhko satao ...
to phir aao ....mujhko rulaoooooooooooo ...hooooooooooo(355)

*********************************************************

Rhtyhm ... Strumming
e|--------------------------------------------------------------|
b|--------------------------------------------------------------|
g|--------------------------------------------------------------|
d|-7-7-7--5-5-5--3-3-3--5-5-5-----------------------------------|
a|-7-7-7--5-5-5--3-3-3--5-5-5-----------------------------------|
e|-5-5-5--3-3-3--1-1-1--3-3-3-----------------------------------|

Aa bhi jaao ........aa bhi jaaaoooooo ............aa bhi jaao ...aa bhi jaao .......

aa bhi jaao ........aa bhi jaaaoooooo ............aa bhi jaao ...aa bhi jaao .......

*********************************************************

Rhtym starts when Lead start 2nd time
e|------------------------------------------------|
b|------------------------------------------------|
g|-5-5--4-4--2------------------------------------|
d|-5-5--4-4--2--5---------------------------------|
a|-3-3--2-2--0--5---------------------------------|
e|--------------3---------------------------------|
Lead
e|------------------------------------------------|
b|------------------------------------------------|
g|-5-5-7-5--4-5-4--2-4-2--0-2---------------------|
d|------------------------------------------------|
a|------------------------------------------------|
e|------------------------------------------------|4x

*********************************************************
Rhtyhm
e|------------------------------------------------|
b|------------------------------------------------|
g|-5-5--5-5---------------------------------------|
d|-5-5--5-5--3-3--3-3-----------------------------|
a|-3-3--3-5--3-3--3-3-----------------------------|
e|-----------1-1--1-1-----------------------------|

Hum mmmmmm ....rahein na raheinnnn .....
dil kiiiiiiii .......sune na sune .....
yeh toofan ......thame na thame ......
yeh aansoo .......ruke na ruke  ............

*********************************************************

e|---------------------------------------------------|
b|---------------------------------------------------|
g|--Strumming----------------------------------------|
d|-7-7-7----3-3-3-|---------------------------5-5-5--|
a|-7-7-7----3-3-3-|---------------------------5-5-5--|
e|-5-5-5----1-1-1-|---------------------------3-3-3--|

To phir aao ....mujhko satao ...
to phir aao ....mujhko rulaoooooooooooo ...hooooooooooo(355)

*********************************************************

Rhtyhm ... Strumming
e|--------------------------------------------------------------|
b|--------------------------------------------------------------|
g|--------------------------------------------------------------|
d|-7-7-7--5-5-5--3-3-3--5-5-5-----------------------------------|
a|-7-7-7--5-5-5--3-3-3--5-5-5-----------------------------------|
e|-5-5-5--3-3-3--1-1-1--3-3-3-----------------------------------|

Aa bhi jaao ........aa bhi jaaaoooooo ............aa bhi jaao ...aa bhi jaao .......

aa bhi jaao ........aa bhi jaaaoooooo ............aa bhi jaao ...aa bhi jaao .......

*Bass Solo*


*********************************************************

Lead  (b=Bend...and p=Pulloff)
e|------------------------------------------------|
b|--15b-p13------15b--p13----13-------------------|
g|----------14------------14----------------------|
d|------------------------------------------------|
a|------------------------------------------------|
e|------------------------------------------------|

Sapnooooooo key samandar main.......
Doobtey chaley jana hai
inh rahoon main joh baat hai
unh khaboon ko mujhey pana hai wooooooooohhhhhhhh hooooooo

*********************************************************
e|---------------------------------------------------------------------------------------|
b|-17-15-15-13-13-12-12-12---17-15-15-13-13-12-12-12---13-12-12-13-12-10-12h13-12-13-15--|
g|---------------------------------------------------------------------------------------|

   Aa bhi jaao ........aa bhi jaaaoooooo ............aa bhi jaao ...aa bhi jaao .......

e|----------------------------------------------------------------------------------------------|
b|-17-15-15-13-13-12-12-12---17-15-15-13-13-12-12-12---13-12-12-13-12-10-12h13-12-13-15-5-8s10--|
g|----------------------------------------------------------------------------------------------|

   aa bhi jaao ........aa bhi jaaaoooooo ............aa bhi jaao ...aa bhi jaao .......

END


******* DONT COPY PASTE *******
Related for Mujhko Satao tab