Song name
# A B C D E F G H I J K L M N O P Q R S T U V W X Y Z

Roxen - To Phir Aaoo tab

Hi arslan here!

i know that the rythem of this solo is quite hard but if u practice u can get it right. 
its my first tab but its damn 100% correct. We are just gettin started


e|-----8h10-8-7h8-7-5h7-5-3-5---3-----3---------3-----3---------------|
B|--------------------------------555---5-5s6-----555---5-6---6-53----|
G|--------------------------------------------------------------------|
D|--------------------------------------------------------------------|
A|--------------------------------------------------------------------|
E|--------------------------------------------------------------------|


e|--------------------------------------------------------------------|
B|-------------5-5s6-6-6s8-8-8s10-10s12-12-12s13-13-13-15-15-13-15-15-|
G|-7-7-5-4s5-7--------------------------------------------------------|
D|--------------------------------------------------------------------|
A|--------------------------------------------------------------------|
E|--------------------------------------------------------------------|


e|-12-10-10-10-8-8-8-7-7-7--7-7------12-10-10-10-8-8-8-7-7-7--7-7-----|
B|--------------------------------------------------------------------|
G|--------------------------------------------------------------------|
D|--------------------------------------------------------------------|
A|--------------------------------------------------------------------|
E|--------------------------------------------------------------------|


e|-8-7-7-7-8-7------8-7-7-7-8-7-8s10----------------------------------|
B|-------------10-----------------------------------------------------|
G|--------------------------------------------------------------------|
D|--------------------------------------------------------------------|
A|--------------------------------------------------------------------|
E|--------------------------------------------------------------------|

e|-12-10-10-10-8-8-8-7-7-7--7-7------12-10-10-10-8-8-8-7-7-7--7-7-----|
B|--------------------------------------------------------------------|
G|--------------------------------------------------------------------|
D|--------------------------------------------------------------------|
A|--------------------------------------------------------------------|
E|--------------------------------------------------------------------|

e|-8-7-7-7-8-7------8-7-8---------------------------------------------|
B|-------------10-----------------------------------------------------|
G|--------------------------------------------------------------------|
D|--------------------------------------------------------------------|
A|--------------------------------------------------------------------|
E|--------------------------------------------------------------------|


if you have any queries about this this tab

DONT try to contact me. im not available at all.
Tap to rate this tab
# A B C D E F G H I J K L M N O P Q R S T U V W X Y Z