Song name
# A B C D E F G H I J K L M N O P Q R S T U V W X Y Z

Roxen - Chalta Raha tab

SONG :CHALTA RAHA
BAND :RoXen
ALBUM:RoXen-e-Dewaar

Tabbed by : COOL GUITARIST
            (Bilal Shoaib)

Here goes

G#m  (466444)
F#   (244322)
E    (022100)

Tuning EADGBE

INTRO

E-------------------------------------------|
B--7-9-7-10-9-7-9-7-10-9-7-9-7-9s10-12-10-9-|
G-------------------------------------------|
D-------------------------------------------|
A-------------------------------------------|
E-------------------------------------------| x3

sansain bhujti gaeen

E----------------------------------------12-14-|
B--7-9-7-10-9-7-9-7-10-9-7-9-7-9s10-12-14------|
G----------------------------------------------|
D----------------------------------------------|
A----------------------------------------------|
E----------------------------------------------|

hoooo hoooo oooo

E-14-14-14-14-14-14-14-14-14-14-------------|
B-------------------------------------------|
G-------------------------------------------|
D-------------------------------------------|
A-------------------------------------------|
E-------------------------------------------|

hoooo hoooo oooo

E-12-12-12-12-12-12-12-12-12-12-------------|
B-------------------------------------------|
G-------------------------------------------|
D-------------------------------------------|
A-------------------------------------------|
E-------------------------------------------|

hoooo hoooo oooo

E-14-14-14-14-14-14-14-14-14-14-------------|
B-------------------------------------------|
G-------------------------------------------|
D-------------------------------------------|
A-------------------------------------------|
E-------------------------------------------|


song starts


E---------------------------------------------------------------|
B--7s9s7s9--7s9s7s9--7s12-12-12-12--9s14-14-14-14-12-12-10-10---|
G---------------------------------------------------------------|
D---------------------------------------------------------------|
A---------------------------------------------------------------|
E---------------------------------------------------------------|


E-----------------------------------------------------------------|
B--7s9s7s9--7s9s7s9--7s12-12-12-12--9s14-14-14-14-12-12-10-10-9-7-|
G-----------------------------------------------------------------|
D-----------------------------------------------------------------|
A-----------------------------------------------------------------|
E-----------------------------------------------------------------|

verse starts

G#
hum chal rahain hain

F#
lamhay gujatay gaye


(for da verses below this tab is played)


yunhi chalta raha
E-------------------------------------|
B--7p9-7p9--7h9-7h9-7p9-7p9--7h9-7h9--|
G-------------------------------------|
D-------------------------------------|
A-------------------------------------|
E-------------------------------------|


sansain bhujti gaeen
E-------------------------------------|
B--7p9-7p9--7h9-7h9-7p9-7p9--7h9-7h9--|
G-------------------------------------|
D-------------------------------------|
A-------------------------------------|
E-------------------------------------|


G#
yea yaadein rakh khoo gain yea kahan khoo gaeen
F#
kuch bhi na rah

G#
yea baatein kahan khoo gaeen saraab ho gaeen
E
main kah na saka


G#
yea yaadein rakh khoo gain yea kahan khoo gaeen
F#
kuch bhi na rah

G#
yea baatein kahan khoo gaeen saraab ho gaeen
E
main kah na saka


Lead


E-----------------------------------|
B--10-10-12-10-10-------------------|
G----9--------9---------------------|
D-----------------------------------|
A-----------------------------------|
E-----------------------------------|(repeat as many times as necessary)


E-----------------------------------------|
B--10-10-12-10-10-12-12-12-10-10-10-9-9-9-|
G----9--------9---------------------------|
D-----------------------------------------|
A-----------------------------------------|
E-----------------------------------------|

hum chal rahain hain
E-------------------------------------|
B--7p9-7p9--7h9-7h9-7p9-7p9--7h9-7h9--|
G-------------------------------------|
D-------------------------------------|
A-------------------------------------|
E-------------------------------------|

kuch bhi na kah sakay
E-------------------------------------|
B--7p9-7p9--7h9-7h9-7p9-7p9--7h9-7h9--|
G-------------------------------------|
D-------------------------------------|
A-------------------------------------|
E-------------------------------------|

door tum say howay
E-------------------------------------|
B--7p9-7p9--7h9-7h9-7p9-7p9--7h9-7h9--|
G-------------------------------------|
D-------------------------------------|
A-------------------------------------|
E-------------------------------------|

khwaboon main kho gaye
E-------------------------------------|
B--7p9-7p9--7h9-7h9-7p9-7p9--7h9-7h9--|
G-------------------------------------|
D-------------------------------------|
A-------------------------------------|
E-------------------------------------|

G#
yea sapnay tot gaye apnay rhooth gaye
F#
kuch bhi na rah

G#
yea haath chooth gaye sub tooth gaye
E
main kah na saka


G#
yea yaadein rakh khoo gain yea kahan khoo gaeen
F#
kuch bhi na rah

G#
yea baatein kahan khoo gaeen saraab ho gaeen
E
main kah na saka


Solo
(no idea only da tabs played behind)


E-----------------------------------|
B-----------------------------------|
G-----------------------------------|
D-----------------------------------|
A--6s7-6s7-7-7----------------------|
E-----9---9-9-----------------------|(repeat as many times as necessary)

G#
yea yaadein rakh khoo gain yea kahan khoo gaeen
F#
kuch bhi na rah

G#
yea baatein kahan khoo gaeen saraab ho gaeen
E
main kah na saka

------------------------------------------------------------------------------------------
D  O  N  E      B  Y        :        B  I  L  A  L          S  H  O  A  I  B
------------------------------------------------------------------------------------------
        ^^      ^^
        \ \    / /
         \ \^^/ /
          \ ( )/
           / @ \
           | @ |
           | @ |
           / /\ \
          / /  \ \
          ~~    ~~
well it might not be perfect but i tried my best
Tap to rate this tab
# A B C D E F G H I J K L M N O P Q R S T U V W X Y Z