Song name
# A B C D E F G H I J K L M N O P Q R S T U V W X Y Z

Roxen - Rozen-e-dewaar tab

Highlighted       Show chord diagrams
Intro:
e|---------------------------------------5---------------|
b|-2s3-3-2-3s2-----------------3s5s7-7-7-----5-5-5-------|
g|-------------2s4-4-4-2-2h4p2---------------------------|
d|-------------------------------------------------------|
a|-------------------------------------------------------|
e|-------------------------------------------------------|2x



Riff A:
e|----------2---------5p3---------2-----------2----------|
b|----3---3--3--3---3-------3---3---3---2---2---2--------|
g|--4---4-----4---4-------4---4-------2---2--------------|
d|-------------------------------------------------------|
a|-------------------------------------------------------|
e|-------------------------------------------------------|


Riff A:
Bm----F#--------G-------A-----Bm
jal rahe hain diye ik nai aas liye

Bm---F#--------G-------A---------Bm
ho rahi hai subha ik naya sooraj liye

Bm---F#----G--------A---------Bm
sans ka kafla ruk gaya kyon yahan

Bm---F#-------G--------A---------Bm
maut sey lar ja joh jeena hai yahan

************************************************** *******
Bm------G-----------A------G-------A-------Bm
Payein gay Jo Khoya Hai andheron kay us paar
Bm------G---------------A------G------A----Bm
Jayein gey Aur Dekhein gey Roshni ki wo dewaar 2x

Bm------G-----------A------G-------A-------Bm
Payein gay Jo Khoya Hai andheron kay us paar
Bm------G-----A------G------A----Bm
Himate hain kahi chalney ko hain tayar

Bm----F#--------G-------A-----
rozen-e-deewar


************************************************** *******

solo
e|-------------------------------------------------------|
b|-------------------------------------------------------|
g|-------------------------------------------------------|
d|-------------------------------------------------------|
a|-------------------------------------------------------|
e|9-10-10-9-10-9-10-9-10-10-9---9-10-10-9-10-9-10-10-14-12-12-| 2x



e|-------------------------------------------------------|
b|-------------------------------------------------------|
g|-------------------------------------------------------|
d|-------------------------------------------------------|
a|-------------------------------------------------------|
e|9-10-10-9-10-9-10-9-10-10-9---9-10-10-9-10-9-10-10-14-12-12-| 4x (with wah wah)
Tap to rate this tab
# A B C D E F G H I J K L M N O P Q R S T U V W X Y Z