Song name
# A B C D E F G H I J K L M N O P Q R S T U V W X Y Z

Roxette - Fingertips tab

FINGERTIPS by Roxette

INTRO: E-A-D-G-(2x)

VERSE: D-G-Bm-A

REFRAIN: Bm-A-D-G

CHORUS: E-A-D-G-;(2x) Bm-G-Bm-G

BRIDGE: Bm-G-A-(4x)

ADLIB: E-A-D-G-;(2x) Bm-G-Bm-G

e|--------------------------------------------|
B|---------3-3-2-2-0-3-3-5-5-5/7-5-5-3-3-2-0--|
G|-2/4\2p0------------------------------------|
D|--------------------------------------------|
A|--------------------------------------------|
E|--------------------------------------------|

e|-----------------------------5-5-7-7-7/9-7--|
B|-----2-3-3-2-2-0-3-3-5-5-5/7----------------|
G|-2/4----------------------------------------|
D|--------------------------------------------|
A|--------------------------------------------|
E|--------------------------------------------|

OUTRO: Bm-G-A-(4x)

e|-----7------------|
B|-------10-7-------|
G|---7--------9/11--|
D|-9----------------|
A|------------------|
E|------------------|

e|-----------------------|
B|-----------------------|
G|-12-12-12-12-11-9\7-7--|
D|-----------------------|
A|-----------------------|
E|-----------------------|

e|--------------------------|
B|--------------------------|
G|-12-12-12-12-11-9\7-9/11--|
D|--------------------------|
A|--------------------------|
E|--------------------------|

e|-----------------------|
B|-----------------------|
G|-12-12-12-12-11-9\7-7--|
D|-----------------------|
A|-----------------------|
E|-----------------------|

NITRAM
08-16-08
10:27 PM
Tap to rate this tab
 
# A B C D E F G H I J K L M N O P Q R S T U V W X Y Z