Guitaretab - guitar tabs
Song name
# A B C D E F G H I J K L M N O P Q R S T U V W X Y Z

Roxette - Joyride tab

JOYRIDE
Roxette

Transcribed by Jibesh (jibesh@hotmail.com)

Gtr I (E A D G B E)------------------------------- 'Distrotion Guitar'
Gtr II (E A D G B E)------------------ ------------'Clean Electric guitar'
Gtr III (doubled an octave higher than Gtr I)----- 'Distrotion Guitar '

(Gtr. 1 is doubled an octave higher by Gtr. 3 during some parts. 
I only tabbed this out in the solo !!)


 h   - hammer-on
 p   - pull-off
 b   - bend
 /\  - slide into or out of (from/to "nowhere")
 s   - legato slide
 S   - shift slide
 ~   - vibrato
 PM  - palm muting
 =   - hold bend; also acts as connecting device for hammers/pulls
 x   - on rhythm slash represents muted slash
 ()  - Still ringing the previous note

**I use 3.5** when I bend, such that it donít sound 4, 
but to sound bit higher then 3 but not exactly 4!!!!!** 


 Intro
  
            N.C.             A5
 4/4
  Gtr I
|---------|----------------|------||
|---------|----------------|------||
|---------|----/6--/6--4p2-|------||
|---------|----------------|-2----||
|---------|-0--------------|-0----||
|---------|----------------|------||


 Verse
       A AsAs4     N.C.                   A AsAs4     N.C.
|------------|-------------------------|------------|-----------------------|
|------2-3-2-|-------------------------|------2-3-2-|-----------------------|
|------2-2-2-|-------------------------|------2-2-2-|-----------------------|
|------2-2-2-|-------------------------|------2-2-2-|-----------------------|
|------------|---------0-------------0-|------------|---------0---------0---|
|------------|-----3h5---0-3b3.5**(see above note)--|-----3h5---0-3b3.5-----|


  D5         B5         N.C.              A AsAs4 N.C.              AsAs4
|----------|----------|-------------------------|--------------------------||
|-3--------|----------|-------------------2-3-2-|-------------------3-2----||
|-2--------|-4--------|-----------------x-2-2-2-|-----------------x-2-2----||
|-0--------|-4--------|-------------------2-2-2-|-------------------2-2----||
|----------|-2--------|-----0---------0---------|-----0---------0----------||
|----------|----------|-3h5---0-3b3.5-----------|-3h5---0-3b3.5------------||


 Verse
       A AsAs4     N.C.                   A AsAs4     N.C.
|------------|---------------------|------------|-----------------------|
|------2-3-2-|---------------------|------2-3-2-|-----------------------|
|------2-2-2-|---------------------|------2-2-2-|-----------------------|
|------2-2-2-|---------------------|------2-2-2-|-----------------------|
|------------|---------0---------0-|------------|---------0---------0---|
|------------|-----3h5---0-3b3.5---|------------|-----3h5---0-3b3.5-----|


  D5         B5
|----------|----------|---------|-----||
|-3--------|----------|---------|-----||
|-2--------|-4--------|---------|-----||
|-0--------|-4--------|---------|-----||
|----------|-2--------|---------|-----||
|----------|----------|---------|-----||


 Pre-Chorus
  E5              D5              A7
|---------------|---------------|-----3------------3---|-----3------------3---|
|---9--9--------|------7--------|-----2------------2---|-----2------------2---|
|-9-------------|-7-7-----------|-----2------------2---|-----2------------2---|
|-9-------------|-7-------------|----------------------|----------------------|
|-7-------------|-5-------------|-0-0---0--0-0-0-0---0-|-0-0---0--0-0-0-0---0-|
|---------------|---------------|----------------------|----------------------|


  E5               D5              D5
                                   PM------------|
|----------------|---------------|-----------------||
|---10--9--------|---8--7--------|-----------------||
|-9--------------|-7-------------|-7-7-7-7-7-7-7-7-||
|-9--------------|-7-------------|-7-7-7-7-7-7-7-7-||
|-7--------------|-5-------------|-5-5-5-5-5-5-5-5-||
|----------------|---------------|-----------------||


 Chorus
  A5   G5     D5  A5         N.C.               D5         A5
|-----------|--------------|------------------|----------|----------|--------||
|-----------|--------------|------------------|----------|----------|--------||
|-----------|-2------------|------/6--/6--4p2-|-2--------|----------|--------||
|-7----5----|-0---2--------|------------------|-0--------|-2--------|--------||
|-7----5----|-----0--------|------------------|----------|-0--------|--------||
|-5----3----|--------------|------------------|----------|----------|--------||


 Verse
        D5        N.C.                    D5
  Gtr II
|-----------|---------------------|-----------|-----|
|-------3-2-|---------------------|-------3-2-|-----|
|-------2---|---------------------|-------2---|-----|
|-----------|---------------------|-----------|-----|
|-----------|---------0---------0-|-----------|-----|
|-----------|-----3h5---0-3b3.5---|-----------|-----|


  D5         B5         N.C.              A AsAs4 N.C.              AsAs4
  Gtr I
|----------|----------|-------------------------|--------------------------||
|-3--------|----------|-------------------2-3-2-|-------------------3-2----||
|-2--------|-4--------|-----------------x-2-2-2-|-----------------x-2-2----||
|-0--------|-4--------|-------------------2-2-2-|-------------------2-2----||
|----------|-2--------|-----0---------0---------|-----0---------0----------||
|----------|----------|-3h5---0-3b3.5-----------|-3h5---0-3b3.5------------||


 Pre-Chorus
  E5              D5              A7
|---------------|---------------|-----3------------3---|-----3------------3---|
|---9--9--------|------7--------|-----2------------2---|-----2------------2---|
|-9-------------|-7-7-----------|-----2------------2---|-----2------------2---|
|-9-------------|-7-------------|----------------------|----------------------|
|-7-------------|-5-------------|-0-0---0--0-0-0-0---0-|-0-0---0--0-0-0-0---0-|
|---------------|---------------|----------------------|----------------------|


  E5               D5              D5
                                   PM------------|
                                     Very heavily muted !!
|----------------|---------------|-----------------||
|---10--9--------|---8--7--------|-----------------||
|-9--------------|-7-------------|-7-7-7-7-7-7-7-7-||
|-9--------------|-7-------------|-7-7-7-7-7-7-7-7-||
|-7--------------|-5-------------|-5-5-5-5-5-5-5-5-||
|----------------|---------------|-----------------||


 Chorus
  A5   G5     D5  A5         N.C.               D5         A5
|-----------|--------------|------------------|----------|------|
|-----------|--------------|------------------|----------|------|
|-----------|-2------------|------/6--/6--4p2-|-2--------|------|
|-7----5----|-0---2--------|------------------|-0--------|-2----|
|-7----5----|-----0--------|------------------|----------|-0----|
|-5----3----|--------------|------------------|----------|------|


  A5   G5     D5  A5         N.C.               D5         A5
|-----------|--------------|------------------|----------|----------|--------||
|-----------|--------------|------------------|----------|----------|--------||
|-----------|-2------------|------/6--/6--4p2-|-2--------|----------|--------||
|-7----5----|-0---2--------|------------------|-0--------|-2--------|-(2)----||
|-7----5----|-----0--------|------------------|----------|-0--------|-(0)----||
|-5----3----|--------------|------------------|----------|----------|--------||


 Guitar Solo
[ Tab from: http://www.guitaretab.com/r/roxette/16537.html ]
From here double guitar begins:Gtr I & Gtr III(doubled an octave higher than Gtr I)
  N.C.
  Gtr I
|-10p9------------------|-10p9------------------------|-------|
|------10---------------|------10---------------------|-------|
|---------11-12---------|---------11-12-------(12)h14-|-------|
|-----------------------|-----------------------------|-------|
|-----------------------|-----------------------------|-12----|
|-----------------------|-----------------------------|-------|
|
| Gtr III
|-----------------------|-----------------------------|-------|
|--3p2------------------|--3p2------------------------|-------|
|-------2---------------|-------2---------------------|-------|
|----------4--5---------|----------4--5--------(5)h=7-|-------|
|-----------------------|-----------------------------|--0----|
|-----------------------|-----------------------------|-------|

Gtr I
|-------------|-10p9------------------|-10p9------------------------|
|-------------|------10---------------|------10---------------------|
|-------------|---------11-12---------|---------11-12-------(12)h14-|
|-------------|-----------------------|-----------------------------|
|-------------|-----------------------|-----------------------------|
|-------------|-----------------------|-----------------------------|
|Gtr III
|-------------|-----------------------|-----------------------------|
|-------------|--3p2------------------|--3p2------------------------|
|-------------|-------2---------------|-------2---------------------|
|-------------|----------4--5---------|----------4--5--------(5)h=7-|
|-------------|-----------------------|-----------------------------|
|-------------|-----------------------|-----------------------------|

Gtr I
|-----------------|----------------------|-----------------|-------------------|
|-----------------|----------------------|-----------------|-------------------|
|-----------------|----------------------|-----------------|-------------------|
|-7--10p7-10p7--7-|-10p7-10p7----------7-|-7--10p7-10p7----|----7--7--10p7-----|
|-----------------|---------------7-10---|---------------7-|-10------------10--|
|-----------------|----------------------|-----------------|-------------------|
|Gtr III
|-----------------|----------------------|-----------------|-------------------|
|-----------------|----------------------|-----------------|-------------------|
|-----------------|----------------------|-----------------|-------------------|
|-----------------|----------------------|-----------------|-------------------|
|-0---3p0--3p0--0-|--3p0--3p0----------0-|-0---3p0--3p0----|----0--0---3p0-----|
|-----------------|---------------0--3---|---------------0-|--3-------------3--|

Gtr I
  G5         D5         N.C.
|----------|----------|-/17--15-----15-------|----------15------|
|----------|-3--------|----------17----15-13-|------------------|
|----------|-2--------|----------------------|------------------|
|-5--------|-0--------|----------------------|-7--9--10----11---|
|-5--------|----------|----------------------|------------------|
|-3--------|----------|----------------------|------------------|
|Gtr III
|----------|----------|----------------------|------------------|
|----------|-3--------|-/10---8------8-------|-----------8------|
|----------|-2--------|-----------9-----7----|------------------|
|-5--------|-0--------|-------------------10-|------------------|
|-5--------|----------|----------------------|-0----------------|
|-3--------|----------|----------------------|----7---8-----9---|


 Bridge
  D5  D6  D5  D6    D5  D6  D5  D6    A5  A6  A5  A6    A5
  Gtr I
|-----------------|-----------------|-----------------|-----------|-----||
|-----------------|-----------------|-----------------|-----------|-----||
|-----------------|-----------------|-----------------|-----------|-----||
|-7-7-9-9-7-7-9-9-|-7-7-9-9-7-7-9-9-|-----------------|-----------|-----||
|-5-5-5-5-5-5-5-5-|-5-5-5-5-5-5-5-5-|-7-7-9-9-7-7-9-9-|-7\--------|-----||
|-----------------|-----------------|-5-5-5-5-5-5-5-5-|-5\--------|-----||


 Chorus
  A5   G5     D5  A5         N.C.               D5         A5
|-----------|--------------|------------------|----------|------|
|-----------|--------------|------------------|----------|------|
|-----------|-2------------|------/6--/6--4p2-|-2--------|------|
|-7----5----|-0---2-(2)----|-(2)--------------|-0--------|-2----|
|-7----5----|-----0-(0)----|-(0)--------------|----------|-0----|
|-5----3----|--------------|------------------|----------|------|


                   A5
                   PM----------------|
|---------|----------|-----------------|
|---------|----------|-----------------|
|---------|----------|-----------------|
|---------|--------7-|-7-7-7-7-7-7-7-7-|
|---------|--------7-|-7-7-7-7-7-7-7-7-|
|---------|--------5-|-5-5-5-5-5-5-5-5-|


  A5   G5     D5  A5         N.C.               D5         A5
|-----------|--------------|------------------|----------|----------|--------|
|-----------|--------------|------------------|----------|----------|--------|
|-----------|-2------------|------/6--/6--4p2-|-2--------|----------|--------|
|-7----5----|-0---2--------|------------------|-0--------|-2--------|-(2)----|
|-7----5----|-----0--------|------------------|----------|-0--------|-(0)----|
|-5----3----|--------------|------------------|----------|----------|--------|

 Gtr I
|-10p9------------------|-10p9------------------------|-----------|-------------|-----*|
|------10---------------|------10---------------------|-----------|-------------|-----*|
|---------11-12---------|---------11-12-------(12)h14-|-----------|-------------|-----*|
|-----------------------|-----------------------------|-----------|-------------|-----*|
|-----------------------|-----------------------------|-12--------|-(12)--------|-----*|
|-----------------------|-----------------------------|-----------|-------------|-----*|
|
| Gtr III
|-----------------------|-----------------------------|-----------|-------------|-----*|
|--3p2------------------|--3p2------------------------|-----------|-------------|-----*|
|-------2---------------|-------2---------------------|-----------|-------------|-----*|
|----------4--5---------|----------4--5--------(5)h=7-|-----------|-------------|-----*|
|-----------------------|-----------------------------|--0--------|--(0)--------|-----*|
|-----------------------|-----------------------------|-----------|-------------|-----*|


Lyrics:

 hit the road out of nowhere 
I had to jump in my care 
And be a rider in a love game 
Following the stars 
Don't need no book of wisdom 
I get no money talk at all 
She has a train going downtown 
She's got a club on the moon 
And she's telling all her secrets 
In a wonderful ballon 
Oh she's the heart of the funfair 
She's got me whistling her private tune 

And it all begins where it ends 
And she's all mine, my magic friend 

She says: Hello, you fool, I love you 
C'mon join the joyride, join the joyride 

She's a flower, I can paint her 
She's a child of the sun 
We're a part of this together 
Could never turn around and run 
Don't need no fortune teller 
To know where my lucky love belongs, oh no 

Cos it all begins when it ends 
And we're all magic friends 

She says: Hello, you fool, I love you 
C'mon join the joyride, be a joyrider (Roxette) 

I take you on a skyride 
A feeling like your spellbound 
The sinshine is a lady 
Who rocks you like a baby 

She says: Hello, you fool, I love you 
C'mon join the joyride, be a joyrider 

Enjoy
Related for Joyride tab