Guitaretab - guitar tabs
Song name
# A B C D E F G H I J K L M N O P Q R S T U V W X Y Z

Roxette - The Look tab

The Look
--------
■Roxette

■Written from Israel,
By Beny yanko.
______________
h - Hammer on
p - Pull off
~ - vibrato
______________

The song starts with a simple ■riff...

e |---------------------------------------------|
B |---------------------------------------------|
G |---------------------------------------------|
D |---------7---5---4--4h5p4p0------------------|
A |-----0--------------------------0------------|
E |---------------------------------------------|

Then the organ plays...

e |--------------------------------------------|
B |--------------------------------------------|
G |--------------------------------------------|
D |------14-/-17-\14---19---14-----------------|
A |----------------------------------12~-------|
E |--------------------------------------------|

The second time...

e |-----------------------------------------------|
B |-----------------------------------------------|
G |-----------------------------------------------|
D |------14-/-17-\14---19---14------------21~-----|
A |----------------------------------12~----------|
E |-----------------------------------------------|

And then, riff 1 and riff 2...

e |--------------------------------------------|
B |--------------------------------------------|
G |--------------------------------------------|
D |---------7---5---4--4h5p4p0------------- ---|   = riff 1
A |-----0--------------------------0-----------|
E |--------------------------------------------|

e |-------------------------------------------------|
B |-------------------------------------------------|
G |-------------------------------------------------| = riff 2
D |---------------7---5-4h5p4--0--------------------|
A |-----0---0-----------------------7~--------------|
E |-------------------------------------------------|

Now, the song words

■A
Walking like a man, hitting like a hammer
        G
She's a juvenile scam. Never was a quitter
 D                                     A
■tasty like a raindrop, she's got the look.
A
■Heavenly bound cause heaven's got a number
                G
When she's spinning me around, kissing is a colour
 D
Her loving is a wild dog, she's got the look.

riff 2
e |-------------------------------------------------|
B |-------------------------------------------------|
G |-------------------------------------------------|
D |---------------7---5-4h5p4--0--------------------|
A |-----0---0-----------------------7~--------------|
E |-------------------------------------------------|


Now, in the next part, use A chord up and down.
Use your hearing to understand the technique.
e |-------------5-----------------------------|
B |-------------5-----------------------------|
G |-------------6-----------------------------|
D |-------------7-----------------------------| = A
A |-------------7-----------------------------|
E |-------------5-----------------------------|

    A                   A
She's got the look. She's got the look.

            C                        D              A
What in the world can make a brown-eyed girl turn blue
         C             D                   A
When everything I'll ever do I'll do for you
            G        D
and I go: la la la la la

she's got the look.

A                A


[[Now play A  chord normally ' like in the start.
Let the chords ring then to the next chord.]]

■A
Fire in the ice,

aked to the T-bone is a lover's disguise.

G
Banging on the head drum,

D
shaking like a mad bull, she's got the look.

riff 2
e |-------------------------------------------------|
B |-------------------------------------------------|
G |-------------------------------------------------|
D |---------------7---5-4h5p4--0--------------------|
A |-----0---0-----------------------7~--------------|
E |-------------------------------------------------|

A
Swaying to the band,
                       G
Moving like a hammer, she's a miracle man.
                      D
Loving is the ocean, kissing is the wet sand,

she's got the look.

riff 2
e |-------------------------------------------------|
B |-------------------------------------------------|
G |-------------------------------------------------|
D |---------------7---5-4h5p4--0--------------------|
A |-----0---0-----------------------7~--------------|
E |-------------------------------------------------|


[[Now like before, use A chord up and down.
Use your hearing to understand the technique]]
e |--------------5-----------------------------|
B |--------------5-----------------------------|
G |--------------6-----------------------------|
D |--------------7-----------------------------|
A |--------------7-----------------------------|
E |--------------5-----------------------------|

     A                   A
She's got the look. She's got the look.

            C                        D              A
What in the world can make a brown-eyed girl turn blue
         C             D                   A
When everything I'll ever do I'll do for you
            G        D
and I go: la la la la la

she's got the look.
[ Tab from: http://www.guitaretab.com/r/roxette/16550.html ]
riff 1
e |-----------------------------------------------|
B |-----------------------------------------------|
G |-----------------------------------------------|
D |---------7---5---4--4h5p4p0--------------------|
A |-----0--------------------------0--------------|
E |-----------------------------------------------|
riff 2
e |-----------------------------------------------|
B |-----------------------------------------------|
G |-----------------------------------------------|
D |---------------7---5-4h5p4--0------------------|
A |-----0---0-----------------------7~------------|
E |-----------------------------------------------|


Solo

e |-----------------------------------------------|
B |---12---------10--------9-----10--8~-----------|
G |-------13----------11------9-------------------|
D |-----------------------------------------------|
A |-----------------------------------------------|
E |-----------------------------------------------|

e |-----------------------------------------------|
B |---12---------10--------9-----10--(10)--(10)---|
G |-------13----------11------9-------------------|
D |-----------------------------------------------|
A |-----------------------------------------------|
E |-----------------------------------------------|

e |-----------------------------------------------|
B |-----------------------------------------------|
G |-----------------------------------------------|
D |----------------2~~----------------------------|
A |-------------2-------0-0-0-0--4-5-4--0---------|
E |----0-0-0-0------------------------------------|


e |-----------------------------------------------|
B |---12---------10--------9-----10~~-------------|
G |-------13----------11------9-------------------|
D |-----------------------------------------------|
A |-----------------------------------------------|
E |-----------------------------------------------|


e |---------------------------------5-------------|
B |---------------------------------5-------------|
G |---------------------------------6-------------|
D |---------------------------------7-------------|
A |---------------------------------7-------------|
E |---3-3-3-3-3-3-3-3-3-5-5-5-5-5-5-5-------------|

[[In this part use■ Power Chords]]

A5
G5
D5

e |------------------------------|
B |------------------------------|
G |------------------------------| =
D |------------------------------|   = = A5
A |-------7----------------------| =
E |-------5----------------------|

e |------------------------------|
B |------------------------------|
G |------------------------------| =
D |------------------------------|   = = G5
A |-------5----------------------| =
E |-------3----------------------|

e |------------------------------|
B |------------------------------|
G |------------------------------| =
D |-------7----------------------|   = = D5
A |-------5----------------------| =
E |------------------------------|

A5
■walking like a man
hitting like a hammer

     G5
she's a juvenile scam.
Never was a quitter

D5
tasty like a raindrop
she's got the look.

[[Now up and down all the chords]]

■And she goes:

A                              G                              D
na na na na na na na na na na na na na na na na na na na na na na na na na na na na na   
got the look

riff 2
e |-------------------------------------------------|
B |-------------------------------------------------|
G |-------------------------------------------------|
D |---------------7---5-4h5p4--0--------------------|
A |-----0---0-----------------------7~--------------|
E |-------------------------------------------------|


[[Now like before , use A chord up and down.
Use your hearing to understand the technique ]]
e |--------------5------------------------------|
B |--------------5------------------------------|
G |--------------6------------------------------|
D |--------------7------------------------------|
A |--------------7------------------------------|
E |--------------5------------------------------|

     A                           A
She's got the look. She's got the look.

            C                        D              A
What in the world can make a brown-eyed girl turn blue
          C            D                 A
When everything I'll ever do I'll do for you
           G           D
 and I go: la la la la la

she's got the look.
riff 2
e |-------------------------------------------------|
B |-------------------------------------------------|
G |-------------------------------------------------|
D |---------------7---5-4h5p4--0--------------------|
A |-----0---0-----------------------7~--------------|
E |-------------------------------------------------|


            C                        D              A
What in the world can make a brown-eyed girl turn blue

          C           D                  A
When everything I'll ever do I'll do for you

          G            D(Only down and stop the guitar sound whit your hand)
and I go: la la la la la

.............

A                              G                              D
na na na na na na na na na na na na na na na na na na na na na na na na na na na na na   
got the look

riff 2
e |-------------------------------------------------|
B |-------------------------------------------------|
G |-------------------------------------------------|
D |---------------7---5-4h5p4--0--------------------|
A |-----0---0-----------------------7~--------------|
E |-------------------------------------------------|

A                              G                              D
na na na na na na na na na na na na na na na na na na na na na na na na na na na na na   
got the look

riff 2
e |-------------------------------------------------|
B |-------------------------------------------------|
G |-------------------------------------------------|
D |---------------7---5-4h5p4--0--------------------|
A |-----0---0-----------------------7~--------------|
E |-------------------------------------------------|


End...

Enjoy

11. April. 2007

By Beny yanko, Israel.

Good song.
Related for The Look tab
The Look chords by Roxette