Song name
# A B C D E F G H I J K L M N O P Q R S T U V W X Y Z

Roxette - Dangerous tab

add me in facebook:thunderraichu@yahoo.com

Title:Dangerous

Band:Roxette

Intro:

Guitar 1:

1------------|
2------------|
3--7h9-9(8x)-|4 times repeat it
4--7h9-9(8x)-|
5--5h7-7(8x)-|
6------------|

Guitar 2:

1-------2-0-----------2-0-let it ring the zero-|
2-0-2-5-----2~--0-2-5--------------------------|
3----------------------------------------------|
4----------------------------------------------|
5----------------------------------------------|
6----------------------------------------------|

Harmonic Solo:

1-8~-12~-19-18-14-12-10-8-7/8-8~-|-i dont know it this part-
2--------------------------------|-          but           -
3--------------------------------|-         i`ll           -
4--------------------------------|-      try my best       -
5--------------------------------|-       to done it       -
6--------------------------------|-    as soon as possible -

Guitar Solo:

1------------------------------|
2------------------------------|
3-7^-7^-5-9^-9-----------------|
4--------------7\9-7-5-7\9-7-0-|
5------------------------------|
6------------------------------|
Tap to rate this tab
# A B C D E F G H I J K L M N O P Q R S T U V W X Y Z