Song name
# A B C D E F G H I J K L M N O P Q R S T U V W X Y Z

Roxette - Listen To Your Heart tab

Roxette  Listen to you heart Intro

e---------5-3-2-0-0---2--|
B-------3-----------3----|
G-----4------------------|
D------------------------|
A--2--------------0---2--|
E---------3--------------|

e------5-3-2------------0-2--------|
B--0-3-------5-3----0-3-----3-2-0--|
G----------------------------------|
D----------------------------------|
A--2--------------------0---2---2--|
E--------------3-------------------|

e---------5-3-2-0-0---2--|
B-------3-----------3----|
G-----4------------------|
D------------------------|
A--2--------------0---2--|
E---------3--------------|

e----2-5-3-2----------5--------|
B--3---------5-3--0-3----------|
G------------------------------|
D------------------------------|
A--2------------------0--------|
E--------------3---------------|

by Florian Jenewein
Enjoy ;)
Tap to rate this tab
 
# A B C D E F G H I J K L M N O P Q R S T U V W X Y Z