Song name
# A B C D E F G H I J K L M N O P Q R S T U V W X Y Z

Roxette - Listen To Your Heart Acoustic tab

First off, this solo is based on the song starting in B-minor. So, it wont fit those who 
the A-minor scale:)
It's a very simplified version, I made it myself.
It might not be good, but it definateley works if you're playing it arround the campfire 
trying to impress your girl/boy.
And, again, a solo(at least this one) is a very boring single-act, if you play it all 
with no other instruments. Try and put this into the real song, it works:) At least for 
And, again, I used an acoustic guitar when I played it, and I dont know if it works on electric.

Try to figure out the rythm when playing this, listen to the song a couple of times 
And, of course, there are several other ways to play it, this is just my own version. Try 
sounds that you think might fit, it probably will!

h=Hammer-on
\=Slide-down

e|--------------------------------------------------------------------|
B|--------------------------------------------------------10-10-12----|
G|----------9-11-11-9----9-9----9h11---------9-11-11-9-------------11-|
D|--9h11h12-----------12-----12------9h11h12-----------12-------------|
A|--------------------------------------------------------------------|
E|--------------------------------------------------------------------|

e|----------------------------------------------------------------|
B|----------------------------------------------------------------|
G|--------9-10-10-9----9-12-11-9\7---------9-11-9-----------------|
D|-9h11h12-----------12-------------9h11h12--------12-11-12-11-9--|
A|----------------------------------------------------------------|
E|----------------------------------------------------------------|

Best of luck(luck has nothing to do with this), and have a good time playing!

R0ck 0n!
- Toby
Tap to rate this tab
 
# A B C D E F G H I J K L M N O P Q R S T U V W X Y Z