Song name
# A B C D E F G H I J K L M N O P Q R S T U V W X Y Z

Roxette - Listen To Your Heart tab

Intro - Arranged for guitar

e |  --5-3-----------------5-2-0------------------------------------------|
h |  -3----5/7-5-3-7---2-3-------3-0--0-2-2/5-3-2p0-----------------------|
g |  4-------------------------------2------------------------------------|
d |  ---------------------------------------------------------------------|
A |  ---------------------------------------------------------------------|
E |  ---------------------------------------------------------------------|


e |  --------14-17-15-14-12-10-14----14-17-14-------------------|
h |  ------12----------------------14--------17-15-12-12-15-17--|
g |  -----------------------------------------------------------|
d |  -----------------------------------------------------------|
A |  -----------------------------------------------------------|
E |  -----------------------------------------------------------|


 Bm       G                       A            Bm
 I know there's something in the wake of your smile.
       G                  A           Bm
 I get a notion from the look in your eyes, yea.
              G                A           Bm
 You've built a love but that love falls apart.
                            G              Em
 Your little piece of heaven turns too dark.

                 Bm  G           D           A
 Listen to your heart when he's calling for you.
                 Bm  G                 D            A
 Listen to your heart there's nothing else you can do.
           D                A        G            D
 I don't know where you're going and I don't know why,
                     Bm  G      A                    Bm
 but listen to your heart before you tell him goodbye.

 Sometimes you wonder if this fight is worthwhile.
 The precious moments are all lost in the tide, yea.
 They're swept away and nothing is what is seems,
 the feeling of belonging to your dreams.

 Listen to your heart...


Solo

e |  -----------------------------------------12b-12b-12-10-10--------9-9b10-|
h |  12v----12/0----7fb-5----------------10--------------------7-------------|
g |  ------------------7-4-6p7p6p4-6p7p6---11-------------------7-9-7v-------|
d |  -----------2-0----------------------------------------------------------|
A |  ------------------------------------------------------------------------|
E |  ------------------------------------------------------------------------|


e |  --7-7-----------------------|
h |  -------10-8-7-7-------------|
g |  ---------------9-7-9-7------|
d |  -----------------------11-9-|
A |  ----------------------------|
E |  ----------------------------|


 E
  And there are voices that want to be heard.
 C#m
  So much to mention but you can't find the words.
 B                          A
  The scent of magic, the beauty that's been
 B                    C#
  when love was wilder than the wind.

                 D#m B           F#          C#
 Listen to your heart when hes calling for you
                 D#m  B                F#           C#
 Listen to your heart, theres nothing else you can do
           F#               C#       B             F#
 I dont know where youre going and I don?t know why,
                     D#m B   C#
 but listen to your heart before you tell him goodbye.


e |  --9-7-----------------9-6------------------------------------------|
h |  -7----9/11-9-711---6-7----9-7--------------------------------------|
g |  8----------------------------8-11-11/13----------------------------|
d |  -------------------------------------------------------------------|
A |  -------------------------------------------------------------------|
E |  -------------------------------------------------------------------|

D#m  B  C#  D#m  B   (ref)


I hope you like it...it's my first tab :)
Tap to rate this tab
 
# A B C D E F G H I J K L M N O P Q R S T U V W X Y Z