Song name
# A B C D E F G H I J K L M N O P Q R S T U V W X Y Z

Roxette - Listen To Your Heart tab

I just made this up so ur free to make any comments and corrections



Listen to your heart(intro)
-standard tuning

|------------------5----3------2--0-------2--------|
|---0----3----3------------------------3-----------|
|--------------------------------------------------|
|--------------------------------------------------|
|--------------------------------------------------|
|--------------------------------------------------|

|-----------5---3---2------------------------------|
|-------3---------------3--------------------------|
|---0----------------------------------------------|
|--------------------------------------------------|
|--------------------------------------------------|
|--------------------------------------------------|

|--------------------------------------------------|
|---0---3---2---0---3---0---0----------------------|
|--------------------------------------------------|
|--------------------------------------------------|
|--------------------------------------------------|
|--------------------------------------------------| x2
Tap to rate this tab
# A B C D E F G H I J K L M N O P Q R S T U V W X Y Z