Song name
# A B C D E F G H I J K L M N O P Q R S T U V W X Y Z

Roy Book Binder - Delia tab

-------------------------------------------------------------------------------
			     SONG NAME - Delia  Band Name- Roy Bookbinder
-------------------------------------------------------------------------------
My first tab. Just repeat once you finish throughout the song. Steady even 
alternating bass. Please comment and email me, would love some feedback. I take 
suggestions for other tabs as well in this style. Thanks


Tabbed by:Rob Fong
Email: rofong6@gmail.com

Tuning:

e|---------------------3-----------------------------------------------------|
B|---------------------1-----------------------------------------------------|
G|------0---------------------------------------------------0----------------|
D|-----------0h2----------------------2--------------------------0h2---------|
A|---------------------------------------------------------------------------|
E|-3----------------------------3------------------3-------------------------|

e|--------3----------------------------------------------3-------------------|
B|--------1----------------------------------------------1-------------------|
G|--------------------------------------0------------------------------------|
D|---------------------2---------------------0h2-----------------------------|
A|---------------------------------------------------------------------------|
E|----------------3--------------3-------------------------------3-----------|

e|---------0------------3---------------------------------------8-------8----|
B|--1h3-----------------1-----------------/5--------------------5-------5----|
G|-------------------------------------------------5------------5-------5----|
D|----------------------------------------/5------------5--------------------|
A|---------------------------------------------------------------------------|
E|---------------------------------------------------------------------------|

e|-----5-----------------------3--------0------------------------------------|
B|-----6-----------------------------------------3p1-------------------------|
G|-----5-------------------------------------------------2-------------------|
D|---------------0---------------------------------------------3-------------|
A|-----------------------------3--------2------------------------------------|
E|---------------------------------------------------------------------------|

e|-----------------------------------------------------------------0---------|
B|----------------1---------------------------------------1h3----------------|
G|----0h2-----------------------2----------------0h2-------------------------|
D|------------3-----------------3--------------------------------------------|
A|---------------------------------------------------------------------------|
E|----1-----------------1-----------------1----------------------------------|

e|---------------------------------------------------------------------------|
B|---3h1---------------------------------------------------------------------|
G|-----------2-----------2--------------2-------------0----------------------|
D|-----------------3---------------------------------------------------------|
A|---------------------------------------------------------------------------|
E|-------------------------------0-------------1--------------3--------------|

e|-----------------------3---------------------------------------------------|
B|-----------------------1---------------------------0------------------1----|
G|-------0-------------------------------0------------------0----------------|
D|------------2-----------------2-------------0h2----------------2-----------|
A|---------------------------------------------------------------------------|
E|---------------------------3-----3-----------------------------------------|

e|---------------------------------------------------------------------------|
B|------------------------1--------------------------------------------------|
G|----0-----------0------------0---------------------------------------------|
D|----2--------------0h2-------2---------------2-----------------------------|
A|---------------------------------------------------------------------------|
E|-------------3------------------------3------------------------------------|


************************************

| /   slide up
| \   slide down
| h   hammer-on
| p   pull-off
| ~   vibrato
| +   harmonic
| x   Mute note
| b   Bend
| pb  Pre-bend
| br  Bend release
| pbr Pre-bend release
| brb Bend release bend

************************************
Tap to rate this tab
# A B C D E F G H I J K L M N O P Q R S T U V W X Y Z