Song name
# A B C D E F G H I J K L M N O P Q R S T U V W X Y Z

Roy Brown - Te Venden tab

Listen the song to got the beat...  Roy Brown - Te Venden    {JRZ}
 
 Intro: D,A,C,G
              
   D         A         C   G       D
e-------2-3---------0--0---3----------2-2h3-2--------------------|
B-----3-----------2----1---3----\-------------3------------------|
G---------------2------0---0---2x---------------2---22h4--2-0----|
D--0-------------------2---0----/--0-----------------------------|
A------------0---------3---2-------------------------------------|
E--------------------------3-------------------------------------|

 Chords:D,G,D,G,A,Em... Bm,G
   D                         G                
e-----2---2-2-2--2--2--2-2-2----3---3-3-3--3--3--3-3-3-----------|
B-----3---3-3-3--3--3--3-3-3----3---3-3-3--3--3--3-3-3-----------|
G-----2---2-2-2--2--2--2-2-2----0---0-0-0--0--0--0-0-0-----------|
D--0----------------------------0---0-0-0--0--0--0-0-0-----------|
A-------------------------------2---2-2-2--2--2--2-2-2-----------|
E----------------------------3-----------------------------------|
   D            G            A            Em
e-----2---2-3-3----3---3-3-3----0---0-0-0----0---0-0-0-----------|
B-----3---3-3-3----3---3-3-3----2---2-2-2----0---0-0-0-----------|
G-----2---2-2-2----0---0-0-0----2---2-2-2----0---0-0-0-----------|
D--0---------------2---2-2-2----2---2-2-2----2---2-2-2-----------|
A----------------------------0---------------2---2-2-2-----------|
E---------------3-------------------------0----------------------|
   A            Em           A               Bm    G      Bm       
e-----0---0-0-0----0---0-0-0----0---0-0-0-\------2------3-----2--|
B-----2---2-2-2----0---0-0-0----2---2-2-2--\-----3------3-----3--|
G-----2---2-2-2----0---0-0-0----2---2-2-2--2x----4------0-----4--|
D-----2---2-2-2----2---2-2-2----2---2-2-2--/-----4------0-----4--|
A--0---------------2---2-2-2-0------------/---2---------2--2-----|
E---------------0----------------------------------3-------------|
   G         Bm    G           
e-----3-3-3-----2-----3----------------|
B-----3-3-3-----3-----3----------------|
G-----0-0-0-----4-----0----------------|
D-----0-0-0-----4-----0----------------|
A-----2-2-2--2--------2--------0-------|
E--3---------------3-----2--0----------|

http://www.roybrown.com/ {Official Website}                  {JRZ}
Tap to rate this tab
# A B C D E F G H I J K L M N O P Q R S T U V W X Y Z